Suicidal Tendencies - The Miracle Chords & Tabs

 

The Miracle Chords & Tabs

Suicidal Tendencies Chords & Tabs

Version: 2 Type: Tab 0 ratings
1 star 2 stars 3 stars 4 stars 5 stars
comments

The Miracle Tab

   
#----------------------------------PLEASE NOTE---------------------------------#
#This file is the author's own work and represents their interpretation of the #
#song. You may only use this file for private study, scholarship, or research. #
#------------------------------------------------------------------------------##
From: johno@Deakin.Edu.Au (Matthew Johnson)

Suicidal Tendencies - The Miracle

---------------------------------------------------------------------
---------------------------------------------------------------------
---------------------  repeat ---------------------------------------
---6-----------------  this   -  then    ---6------------------------
---6---------6--4-5--  many   -  finally ---6---------6-5-4----------
---4--4-4-4--4--2-3--  times  --------------4--4-4-4--4-3-2----------


                     h p       p h p
----------------------------------------------------
----------------------------------------------------
----------------2-3-2^3^2---2-----------------------
---2--2--2--2-------------3---3^2^3^2---------------
---2--2--2--2-------------------------3-------------
---0--0--0--0---------------------------------------

                     h p         sl
----------------------------------------------------
----------------------------------------------------
----------------2-3-2^3^2---2-----------------------
---2--2--2--2-------------3---3-3/5-----------------
---2--2--2--2---------------------------------------
---0--0--0--0---------------------------------------

              h p h p             h p h p             h
----------------------------------------------------------------------
----------------------------------------------------------------------
-------------2^3^2^3^2-------------------------------2^3--------------
---------------------------------2^3^2^3^2---------------3-2----------
-------------------------------------------------------------3-2-----2
---0-000-000-----------0-000-000-----------0-000-000-------------3-2-0
[ Tab from: http://www.guitartabs.cc/tabs/s/suicidal_tendencies/the_miracle_tab_ver_2.html ]
----------------------------------------------------------------------
----------------------------------------------------------------------
----------------------------------------------------------------------
------------------3-2--------------------------3-2--------------------
----------------------3--2-----2-------------------3--2---------------
---00-000-000-000----------3-2-0-0-000-000-000----------3-2-----------

----------------------------------------------------------------------
----------------------------------------------------------------------
----------------------------------------------------------------------
---5/7--8\7--5/7--8\7----5-----------3/4------------------------------
---3/5--6\5--3/5--6\5--x-3-3-3-3-3-3-1/2-2-2-2-2-2--------------------
----------------------------------------------------------------------

----------------------------------------------------------------------
----------------------------------------------------------------------
---5------------------------5-----------3-----------------------------
---5-----------6------------5-----------3-----------------------------
---3-----------6------------3-----------1-----------------------------
---------------4-----4346---------------------------------------------
  ------------------------|
     play 3 times

----------------------------------------------------------------------
----------------------------------------------------------------------
----------------------------------------------------------------------
---5-----5------------------5-----5-----3-----3-----------------------
---3-3-3-3-3-3-6------------3-3-3-3-3-3-1-1-1-1-1-1-------------------
---------------4-4-4-4346---------------------------------------------
  ------------------------|
     play 3 times

----------------------------------------------------------------------
----------------------------------------------------------------------
----------------------------------------------------------------------
---5----------------------------------5----------------3--------------
---3-333-333-333-33-6-----------------3-333-333-333-33-1-1111111111---
--------------------4-444-444-444-44----------------------------------
  ----------------------------------|
      play 3 times


Matthew Johnson

Comments