Suicidal Tendencies - Subliminal Chords & Tabs

 

Subliminal Chords & Tabs

Suicidal Tendencies Chords & Tabs

Version: 1 Type: Tab 0 ratings
1 star 2 stars 3 stars 4 stars 5 stars
comments

Subliminal Tab

Drop D tuning

E|-------------------------------|
B|-------------------------------|
G|-------------------------------|
D| 2-2--5-5-5--4-4-4--3-3-3------|
A| 2-2--5-5-5--4-4-4--3-3-3------|   x 4
D| 2-2--5-5-5--4-4-4--3-3-3------|  

E|-------------------------------------------|
B|-------------------------------------------|
G|-------------------------------------------|
D| --2-2-2--5--2-2-2--5--4-4-4--3-3-3--------|
A| --2-2-2--5--2-2-2--5--4-4-4--3-3-3--------|   x 2
D| --2-2-2--5--2-2-2--5--4-4-4--3-3-3--------|
        .  .  .        .  .  .

E|-------------------------------|
B|-------------------------------|
G|-------------------------------|
D| 2-2--5-5-5--4-4-4--3-3-3------|
A| 2-2--5-5-5--4-4-4--3-3-3------|   x 2
D| 2-2--5-5-5--4-4-4--3-3-3------|  
     
 x Chours x
E|----------------------|
B|----------------------|
G|----------------------|
D|-2-2-2-2--4-4-5-5-----|
A|-2-2-2-2--4-4-5-5-----|
D|-2-2-2-2--4-4-5-5-----|   x 4

E|----------------------|
B|----------------------|
G|----------------------|
D|--2-5-2-5-2-5-2-5-----|
A|--2-5-2-5-2-5-2-5-----|
D|--2-5-2-5-2-5-2-5-----|

E|----------------------|
B|----------------------|
G|----------------------|
D|-2-2-2-2--4-4-5-5-----|
A|-2-2-2-2--4-4-5-5-----|
D|-2-2-2-2--4-4-5-5-----|   x 4

E|----------------------|
B|----------------------|
G|----------------------|
D|--2-5-2-5-2-5-2-5-----|
A|--2-5-2-5-2-5-2-5-----|
D|--2-5-2-5-2-5-2-5-----|

E|----------------------|
B|----------------------|
G|----------------------|
D|-2-2-2-2--4-4-5-5-----|
A|-2-2-2-2--4-4-5-5-----|
D|-2-2-2-2--4-4-5-5-----|  x 4     

E|-------------------------------|
B|-------------------------------|
G|------------------------------^|
D| 2-2--5-5-5--4-4-4--3-3-3------|
A| 2-2--5-5-5--4-4-4--3-3-3------|   x 2
D| 2-2--5-5-5--4-4-4--3-3-3------|  

E|--------------------------------|
B|--------------------------------|
G|--------------------------------|
D| 2-2--5-5-5--4-4-4--3-3-3-------|
A| 2-2--5-5-5--4-4-4--3-3-3-------|   x 2
D| 2-2--5-5-5--4-4-4--3-3-3-------|  
[ Tab from: http://www.guitartabs.cc/tabs/s/suicidal_tendencies/subliminal_tab.html ]
E|-------------------------------------------|
B|-------------------------------------------|
G|-------------------------------------------|
D| --2-2-2--5--2-2-2--5--4-4-4--3-3-3--------|
A| --2-2-2--5--2-2-2--5--4-4-4--3-3-3--------|   x 2
D| --2-2-2--5--2-2-2--5--4-4-4--3-3-3--------|
        .  .  .        .  .  .

E|--------------------------------|
B|--------------------------------|
G|--------------------------------|
D| 2-2--5-5-5--4-4-4--3-3-3-------|
A| 2-2--5-5-5--4-4-4--3-3-3-------|   x 2
D| 2-2--5-5-5--4-4-4--3-3-3-------|  

Chorus
E|----------------------|
B|----------------------|
G|----------------------|
D|-2-2-2-2--4-4-5-5-----|
A|-2-2-2-2--4-4-5-5-----|
D|-2-2-2-2--4-4-5-5-----|   x 4

E|----------------------|
B|----------------------|
G|----------------------|
D|--2-5-2-5-2-5-2-5-----|
A|--2-5-2-5-2-5-2-5-----|
D|--2-5-2-5-2-5-2-5-----|

E|----------------------|
B|----------------------|
G|----------------------|
D|-2-2-2-2--4-4-5-5-----|
A|-2-2-2-2--4-4-5-5-----|
D|-2-2-2-2--4-4-5-5-----|   x 4

E|----------------------|
B|----------------------|
G|----------------------|
D|--2-5-2-5-2-5-2-5-----|
A|--2-5-2-5-2-5-2-5-----|
D|--2-5-2-5-2-5-2-5-----|

E|----------------------|
B|----------------------|
G|----------------------|
D|-2-2-2-2--4-4-5-5-----|
A|-2-2-2-2--4-4-5-5-----|
D|-2-2-2-2--4-4-5-5-----|   x 4     

x Vers x

E|-------------------------------|
B|-------------------------------|
G|-------------------------------|
D| 2-2--5-5-5--4-4-4--3-3-3------|
A| 2-2--5-5-5--4-4-4--3-3-3------|    x 4
D| 2-2--5-5-5--4-4-4--3-3-3------|  

E|-------------------------------------------|
B|-------------------------------------------|
G|-------------------------------------------|
D| --2-2-2--5--2-2-2--5--4-4-4--3-3-3--------|
A| --2-2-2--5--2-2-2--5--4-4-4--3-3-3--------|  x 2
D| --2-2-2--5--2-2-2--5--4-4-4--3-3-3--------|
        .  .  .        .  .  .

E|-------------------------------|
B|-------------------------------|
G|-------------------------------|
D| 2-2--5-5-5--4-4-4--3-3-3------|
A| 2-2--5-5-5--4-4-4--3-3-3------|  x 2
D| 2-2--5-5-5--4-4-4--3-3-3------|  
     
End on

E|------|
B|------|
G|------|
D|--2---|
A|--2---|
D|--2---|
Comments