Suicidal Tendencies - One Too Many Times Chords & Tabs

 

One Too Many Times Chords & Tabs

Suicidal Tendencies Chords & Tabs

Version: 3 Type: Tab 0 ratings
1 star 2 stars 3 stars 4 stars 5 stars
comments

One Too Many Times Tab

   
Band:  Suicidal Tendencies
Album: How Will I Laugh Tomorrow when I Can't Even Smile Today
Song:  One Too Many Times

Copyright (c)  (Virgin) (1988)
Version 1.0 - (04/04/05)

Transcribed By: Steve
Email:          stephen.elvidge1@ntlworld.com


.  - palm mute           /  - slide up to
\  - slide down to       ~  - vibrato
h  - hammer on           b  - Bend
p  - pull off            Suffixes for bend
t  - tap                 f  - full bend    h - half bend
ph - pinched harmonic    q  - quarter bend t - tap bend
*  - see comment         ^  - Hold bend    r release bend
x  - Stuccatto           ~  - vibrato bend
,  - slight palm mute    () - ghost note, sustained note
"  - tremolo note        <> - Trill

Tunning E A D G B E
 

 Intro / Verse Riff

E-------------------------------------------------------------------|
B-------------------------------------------------------------------|
G-2------(2)----------------------5------/7------2-------(2)--------|
D-2------(2)------3------(3)------5------/7------2-------(2)--------|
A-0------(0)------3------(3)------3------/5------0-------(0)--------|
E-----------------1------(1)----------------------------------------|
 

  Guitar 1
E[-------------------------------------------------------------------|
B[-------------------------------------------------------------------|
G[-2------(2)----------------------5------/7------2-------(2)--------|
D[-2------(2)------3------(3)------5------/7------2-------(2)--------|
A[-0------(0)------3------(3)------3------/5------0-------(0)--------|
E[-----------------1------(1)----------------------------------------|  
 [ 
 [Guitar 2
 [                                                [------PM-----]
E[-------------------------------------------------------------------|
B[-------------------------------------------------------------------|
G[-------------------------------------------------------5555555-5\--|
D[------------------------------------------------7757-7---------5\--|
A[-------------------------------------------------------------------|
E[-------------------------------------------------------------------|

 Main Riff / Verse Riff

  Guitar 1
   [PM]   h   h [PM]      [---------PM-----------]
E[-------------------------------------------------|
B[-------------------------------------------------|
G[-2-----0-2p0-2-----------------------------------|
D[-2-----0-2p0-2-----------------------------------|
A[-0-0-0---------0-0-3-2-0-3-3-3-3-3-3-3-3-3-3-3-3-|
E[-------------------------1-1-1-1-1-1-1-1-1-1-1-1-|
 [Guitar 2                 ~~~~~~~~~~~~~~~~~~~~~~~
E[-------------------------------------------------|
B[-------------------------------------------------|
G[-------------------5-4-2-------------------------|
D[-------------------------3-----------------------|
A[-------------------------------------------------|
E[-------------------------------------------------|

 
  Guitar 1
   [PM]   h   h [PM]      [--PM--]
E[-------------------------------------------------|
B[-------------------------------------------------|
G[-2-----0-2p0-2-------------------5--(5)--7--(7)--|
D[-2-----0-2p0-2-------------------5--(5)--7--(7)--|
A[-0-0-0---------0-0-3-2-0-3-3-3-3-3--(3)--5--(5)--|
E[-------------------------1-1-1-1-------0---------|
 [Guitar 2                 ~~~~~~~~
E[-------------------------------------------------|
B[-------------------------------------------------|
G[-------------------------------------------------|
D[-------------------------3-----------------------|
A[-------------------------------------------------|
E[-------------------------------------------------|

 Rpt above Riffs

 Verse Riff Variant
[ Tab from: http://www.guitartabs.cc/tabs/s/suicidal_tendencies/one_too_many_times_tab_ver_3.html ]
  Guitar 1
E[-------------------------------------------------------------------|
B[-------------------------------------------------------------------|
G[-2------(2)----------------------5------/7------2-------(2)--------|
D[-2------(2)------3------(3)------5------/7------2-------(2)--------|
A[-0------(0)------3------(3)------3------/5------0-------(0)--------|
E[-----------------1------(1)----------------------------------------|  
 [ 
 [Guitar 2
 [      [---PM----]     [---PM----]                     [---PM----]
E[-------------------------------------------------------------------|
B[-------------------------------------------------------------------|
G[-------25524-245-------25524-245-----------------------25-24-2-5\--|
D[-------------------------------------------------------------------|
A[-------------------------------------------------------------------|
E[-------------------------------------------------------------------|
                                                           Rpt
  Guitar 1
   [PM]   h   h [PM]      [---------PM-----------]
E[-------------------------------------------------|
B[-------------------------------------------------|
G[-2-----0-2p0-2-----------------------------------|
D[-2-----0-2p0-2-----------------------------------|
A[-0-0-0---------0-0-3-2-0-3-3-3-3-3-3-3-3-3-3-3-3-|
E[-------------------------1-1-1-1-1-1-1-1-1-1-1-1-|
 [Guitar 2                  Trill            ph~~~~
E[-----------------------------------------8-------|
B[-------------------------10p8--------------10----|
G[-------------------------------------------------|
D[-------------------------------------------------|
A[-------------------------------------------------|
E[-------------------------------------------------|

  Guitar 1
   [PM]   h   h [PM]      [--PM--]
E[-------------------------------------------------|
B[-------------------------------------------------|
G[-2-----0-2p0-2-------------------5--(5)--7--(7)--|
D[-2-----0-2p0-2-------------------5--(5)--7--(7)--|
A[-0-0-0---------0-0-3-2-0-3-3-3-3-3--(3)--5--(5)--|
E[-------------------------1-1-1-1-------0---------|
 [Guitar 2 
 [   ~~~~~~~~~~~~~~~~~~    ~~~~~~~~
E[-------------------------------------------------|
B[-(10)--------------------------------------------|
G[-------------------------------------------------|
D[-------------------------3-----------------------|
A[-------------------------------------------------|
E[-------------------------------------------------|

   [PM]   h   h [PM]      [---------PM-----------]
E[-------------------------------------------------|
B[-------------------------------------------------|
G[-2-----0-2p0-2-----------------------------------|
D[-2-----0-2p0-2-----------------------------------|
A[-0-0-0---------0-0-3-2-0-3-3-3-3-3-3-3-3-3-3-3-3-|
E[-------------------------1-1-1-1-1-1-1-1-1-1-1-1-|
 [Guitar 2                  Trill            ph~~~~
E[-----------------------------------------8-------|
B[-------------------------10p8--------------10----|
G[-------------------------------------------------|
D[-------------------------------------------------|
A[-------------------------------------------------|
E[-------------------------------------------------|
 [Guitar 3                 ~~~~~~~~~~~~~~~~~~~~~~~
E[-------------------------------------------------|
B[-------------------------------------------------|
G[-------------------5-4-2-------------------------|
D[-------------------------3-----------------------|
A[-------------------------------------------------|
E[-------------------------------------------------|

  Guitar 1
   [PM]   h   h [PM]      [--PM--]
E[-------------------------------------------------|
B[-------------------------------------------------|
G[-2-----0-2p0-2-------------------5--(5)--7--(7)--|
D[-2-----0-2p0-2-------------------5--(5)--7--(7)--|
A[-0-0-0---------0-0-3-2-0-3-3-3-3-3--(3)--5--(5)--|
E[-------------------------1-1-1-1-------0---------|
 [Guitar 2 
 [   ~~~~~~~~~~~~~~~~~~    ~~~~~~~~
E[-------------------------------------------------|
B[-(10)--------------------------------------------|
G[-------------------5-4-2-------------------------|
D[-------------------------3-----------------------|
A[-------------------------------------------------|
E[-------------------------------------------------|

 Rpt Verse Riff Varient 2 X

   [---PM----]     [--PM--] PM  PM      PM   PM  h
E--------------------------------------------------|
B--------------------------------------------------|
G--------------------------------------------------|
D-------------5-\2---------5---5---5/7-4---4---4-5-|
A-2-----------5-\2---------5---5---5/7-5---5---5---|
E-0-0-0-0-0-0------0-0-0-0---0---0-------0---0-----| Rpt 4 X

E-------------------------------------|
B-------------------------------------|
G-------------------------------------|
D------------------------------12\----|
A-2---------------(2)----------12\----|
E-0---------------(0)----------12\----|

      PM  PM
E--------------|
B--------------|
G--------------|
D-2-----5---4--|
A-0---0-3p0-2--|
E--------------|Rpt 3 X
      PM  PM
E------------------------|
B------------------------|
G------------------------|
D-2-----5---7---7-7/8\7--|
A-0---0-3p0-5---5-5/6\5--|
E------------------------|

 Rpt above 2 riffs 4 X

 Ending

      PM  PM
E--------------|
B--------------|
G--------------|
D-2-----5---4--|
A-0---0-3p0-2--|
E--------------|Rpt 3 X
      PM  
E--------------------------------------------------|
B--------------------------------------------------|
G--------------------------------------------------|
D-2-----5---7-----------------(7)------------------|
A-0---0-3---5-----------------(5)------------------|
E--------------------------------------------------|




END
Comments