Suicidal Tendencies - Institutionalized Chords & Tabs

 

Institutionalized Chords & Tabs

Suicidal Tendencies Chords & Tabs

Version: 1 Type: Bass Tab 0 ratings
1 star 2 stars 3 stars 4 stars 5 stars
comments

Institutionalized Bass Tab

   
Instatutionalized by Suicidial Tendancies


              Intro
E-6-6-6-7-7-7-7-|
A---------------|
D---------------|
G---------------|

Reapeat A Bunch Then Go To

              Part 2

E-1-1-1-1-1-1-1-4-4-4-3-3-3-|
A---------------------------|
D---------------------------|
G---------------------------|
[ Tab from: http://www.guitartabs.cc/tabs/s/suicidal_tendencies/institutionalized_btab.html ]
               Part 3

E-6---7--------------------|
A---6---7------------------|
D--------------------------|
G--------------------------|


Figure Out how many times to play and when to play it by listening to the song.

Tabed By Cory(Slimfast)Hunnewell

Check Out The Band Corperate Deathburger on myspace at myspace.com/coperatedeathburger
Comments