Suicidal Tendencies - I Aint Like You Chords & Tabs

 

I Aint Like You Chords & Tabs

Suicidal Tendencies Chords & Tabs

Version: 1 Type: Tab 0 ratings
1 star 2 stars 3 stars 4 stars 5 stars
comments

I Aint Like You Tab

Suicidal Tendencies - I aint like you

- = Palm muted

Intro
E|----------------------------------------|
B|----------------------------------------|
G|----------------------------------------|
D|--3-5-6-5-5-5-5-5-5-5-5-5-5-------------|
A|--3-5-6-5-5-5-5-5-5-5-5-5-5-------------| 10X
E|--1-3-4-3-3-3-3-3-3-3-3-3-3-------------|
            - - - - - - - - - 

Break - Bass only

Verse
E|-----4X-----|-----------------------------------------|
B|------------|-----------------------------------------|
G|-------5----|--6-6--6-6--5-5--5-5--3-3--3-3--3--------|
D|--8-8--5-5--|--6-6--6-6--5-5--5-5--3-3--3-3--3--3-----| 2X
A|--8-8--3-5--|--4-4--4-4--3-3--3-3--1-1--1-1--1--3-----|
E|--6-6----3--|-----------------------------------1-----|

Chorus
E|------------|
B|------------|
G|-------5----|
D|--8-8--5-5--| 8X
A|--8-8--3-5--|
E|--6-6----3--|
[ Tab from: http://www.guitartabs.cc/tabs/s/suicidal_tendencies/i_aint_like_you_tab.html ]
Intro 10x

Break - Bass only

Verse 2X

Chorus Bass only 8X

Bridge
E|---4X---|        |--------8X--------|
B|--------|        |------------------|
G|--------| Then-> |----------5-------|
D|--8--5--|        |--8--5-5--5-------| 
A|--8--5--|        |--8--5-5--3-------|
E|--6--3--|        |--6--3-3----------|

Chorus 4X

Outro
E|----------------------------------|-------------------------------------|
B|----------------------------------|-------------------------------------|
G|-66666666555555553333333333333333-|-6666666655555555333333333333-3------|
D|-66666666555555553333333333333333-|-6666666655555555333333333333-3-3-5--|
A|-44444444333333331111111111111111-|-4444444433333333111111111111-1-3-5--|
E|----------------------------------|--------------------------------1-3--|

Done.

Comments, Questions, whatever Mail me; the_war_on_bush@hotmail.com
Comments