Suicidal Tendencies - Feelings Back Chords & Tabs

 

Feelings Back Chords & Tabs

Suicidal Tendencies Chords & Tabs

Version: 1 Type: Tab 0 ratings
1 star 2 stars 3 stars 4 stars 5 stars
comments

Feelings Back Tab

   
Band:  Suicidal Tendencies
Album: How Will I Laugh Tomorrow When I Can't Even Smile Today
Song:  The Feeling's Back

Copyright (c)  (Virgin) (1988)
Version 1.0 - (03/04/05)

Transcribed By: Steve
Email:          stephen.elvidge1@ntlworld.com


.  - palm mute           /  - slide up to
\  - slide down to       ~  - vibrato
h  - hammer on           b  - Bend
p  - pull off            Suffixes for bend
t  - tap                 f  - full bend    h - half bend
ph - pinched harmonic    q  - quarter bend t - tap bend
*  - see comment         ^  - Hold bend    r release bend
x  - Stuccatto           ~  - vibrato bend
,  - slight palm mute    () - ghost note, sustained note
"  - tremolo note        <> - Trill

Tunning E A D G B E
 

 Intro

     [PM]    [PM]   [-PM-]   [PM]       [--PM---]
E-------------------------------------------------|
B---------8---------------------------------------|
G---------7---------------------------------------|
D---------5---------------5------/7--7-7----------|
A-2---------------2-------3---3-0/5--5-5----------|
E-0---0-0-----0-0-0-0-2-3----------------0-3-2-0--| Rpt 6 X

 Main Riff / Verse Riff

  [-----PM----]   h [---PM--]    [---PM---]       [PM]
E------------------------------------------------------|
B------------------------------------------------------|
G------------------------------------------------------|
D---------------0-2-----------5------------7--7-7------|
A-2-2-2-2-2-2-2-0-2-2-2-2-4/5-3--2-2-2-4/5-5--5-5------|
E-0-0-0-0-0-0-0-----0-0-0-2/3----0-0-0-2/3--------3-2--|

  [-----PM----]   h [---PM--]    [---PM---]       
E----------------------------------------------------------|
B----------------------------------------------------------|
G----------------------------------------------------------|
D---------------0-2-----------5------------7--7-7-7/9\7/9\-|
A-2-2-2-2-2-2-2-0-2-2-2-2-4/5-3--2-2-2-4/5-5--5-5-5/7\5/7\-|
E-0-0-0-0-0-0-0-----0-0-0-2/3----0-0-0-2/3-----------------| 

 Rpt Verse riffs 3 X replace last time with riff below.

 Verse Riff last time
[ Tab from: http://www.guitartabs.cc/tabs/s/suicidal_tendencies/feelings_back_tab.html ]
  [-----PM----]   h [---PM--]    [---PM---]       
E-----------------------------------------------------|
B-----------------------------------------------------|
G-----------------------------------------------------|
D---------------0-2-----------5------------7--7-7-7/9-|
A-2-2-2-2-2-2-2-0-2-2-2-2-4/5-3--2-2-2-4/5-5--5-5-5/7-|
E-0-0-0-0-0-0-0-----0-0-0-2/3----0-0-0-2/3------------|

 Chorus

  [PM]  PM  PM  PM  PM
E------------------------|
B------------------------|
G------------------------|
D-----2---3---4---3---2--|
A-----2---3---2---3---2--|
E-0-0---0---0---0---0----| Rpt 4 X

 Lead line in Chorus

E-----15--17-----20-19---|
B-17---------17----------|
G------------------------|
D------------------------|
A------------------------|
E------------------------| Rpt 3 X


 Rpt Verse
 Rpt Chorus

 Interlude

   [--PM---]   [--PM---]  [--PM---] [-----PM------]
E--------------------------------------------------|
B--------------------------------------------------|
G--------------------------------------------------|
D-2----------8----------5----------3-3-3-3-3-5-3---|
A-0--0-0-0-0-6--0-0-0-0-3--0-0-0-0-1-0-1-0-1-3-1-0-|
E--------------------------------------------------| Rpt 4 X

   [----PM-----] [----PM-----]
E-------------------------------------------------------------------|
B-------------------------------------------------------------------|
G-------------------------------------------------------------------|
D-3-3-3-3-3-5-3-3-3-3-3-3-5-3-2------------------(2)----------------|
A-1-0-1-0-1-3-1-1-0-1-0-1-3-1-0------------------(0)-----------12\--|
E-1-------------1----------------------------------------------12\--|

 
 [--PM---]  [--PM---] [--PM---]      h    PM    h
E--------------------------------------------------|
B--------------------------------------------------|
G--------------------------------------------------|
D---------7----------5----------7--5-7/8p7---5--7--|
A-2-2-2-2-7--2-2-2-2-5--2-2-2-2-7--5-7/8p7---5--7--|
E-0-0-0-0----0-0-0-0----0-0-0-0------------0-------| Rpt 4 X 
 Rpt 4 X again for guitar solo backing

 Rpt Verse
 Rpt Chorus 2 X
 
E-------------------------------------------------------------------|
B-------------------------------------------------------------------|
G-------------------------------------------------------------------|
D-2--------------------(2)------------------------------------------|
A-2--------------------(2)------------------------------------------|
E-0--------------------(0)------------------------------------------|

 Rpt Intro Riff to fade.



END
Comments