Suicidal Dragons - He Is The Wasted Chords & Tabs

 

He Is The Wasted Chords & Tabs

Suicidal Dragons Chords & Tabs

Version: 1 Type: Tab 0 ratings
1 star 2 stars 3 stars 4 stars 5 stars
comments

He Is The Wasted Tab

Song:He is the wasted
Artist:Suicidal Dragons

INTRO:(x2)
---------------------------------------------------------------------
---------------------------------------------------------------------
---------------------------------------------------------------------
-1-1-1-1----7-7-7-7----3-3-3-3---5-5-5-5-----------------------------
-3-3-3-3----9-9-9-9----5-5-5-5---7-7-7-7-----------------------------
-3-3-3-3----9-9-9-9----5-5-5-5---7-7-7-7-----------------------------

VERSE 1:
------------------------------------------------------------------------------------------------------
------------------------------------------------------------------------------------------------------
-9--------7-------9----------------9--------5-------9------8--9--6--9-----------------7------9--------
-9-(x11)--7-(x8)--9-(x11)--9-------9-(x11)--7-(x8)--9-(x7)-8--9--8--9--7------7-------7(x4)--9-(x6)---
-7--------5-------7--------9-(x8)--7--------7-------7------6--7--8--7--9-(x8)-7-(x8)--5------7--------
---------------------------7-------------------------------------------9------5-----------------------

CHORUS:
-------------------------------------------------------------------------------------------------
-------------------------------------------------------------------------------------------------
-------------------------------------------------------------------------------------------------
-9-------7-------7-------5-------9-------7-------7--------7-------5-------3----------------------
-9-(x9)--9-(x7)--7-(x7)--7-(x7)--9-(x15)-9-(x10)-7-(x15)--5-(x10)-5-(x15)-5-(x10)----------------
-7-------9-------5-------7-------7-------9-------5--------5-------3-------5----------------------
[ Tab from: http://www.guitartabs.cc/tabs/s/suicidal_dragons/he_is_the_wasted_tab.html ]
--------------------------------------------------------------------------------------------------
--------------------------------------------------------------------------------------------------
----------------7------9--------------------------------------------------------------------------
-9-------7------7-(x4)-----9--------7-------7-------5---------------------------------------------
-9-(x8)--7-(x8)-5--7-------9-(x9)---9-(x7)--7-(x7)--7-(x7)----------------------------------------
-7-------5-----------------7--------9-------5-------7---------------------------------------------





VERSE 2:

-------------------------------------------------------------------------------------------
-------------------------------------------------------------------------------------------
-9----------------9--------5-------9--------------9--------7-------------------------------
-9-(x9)--9--------9-(x10)--7-(x4)--9-(x5)-7-------9-(x10)--7-(x7)--------------------------
-7-------9-(x10)--7--------7-------7------9-(x6)--7--------5-------------------------------
---------7--------------------------------9------------------------------------------------


        ~*REPEAT CHORUS*~(X2)


-----------------------------------------------------
-----------------------------------------------------
-----------------------------------------------------
-9-------7-------7-------5---------------------------
-7-(x9)--9-(x7)--7-(x7)--7-(x7)----------------------
-7-------9-------5-------7---------------------------


_____________________________________________________________________
Hey this is my band I am 15. Do you  like my song? Would you like me to put more up? 
Well e-mail me...jd.brown@shaw.ca...I will be looking forward to hearing 
from you.
Jason
Comments