Suicidal Chicken Head - Desde A Primeira Vez Chords & Tabs

 

Desde A Primeira Vez Chords & Tabs

Suicidal Chicken Head Chords & Tabs

Version: 1 Type: Tab 0 ratings
1 star 2 stars 3 stars 4 stars 5 stars
comments

Desde A Primeira Vez Tab

    Desde A Primeira Vez - Suicidal Chicken Head

Verse
e|-----------------------|
b|-----------------------|
g|--9---------9----------|
d|--9----7----9----9-----|
a|--7----7----7----9-----|
e|-------5---------7-----|

Guitar 2
e|------------------------|
b|------------------------|
g|-9---14---9---16-14-13--|
d|------------------------|
a|-7---12---7---14-12-11--|
e|------------------------|
[ Tab from: http://www.guitartabs.cc/tabs/s/suicidal_chicken_head/desde_a_primeira_vez_tab.html ]
Pre chorus
e|---------------------|
b|---------------------|
g|-------9-------------|
d|--7----9----9---9----|
a|--7----7----9---9----|
e|--5---------7---7----|

Chorus
e|---------------------|
b|---------------------|
g|---------------------|
d|--11---9----7----7---|
a|--11---9----7----7---|
e|--9----7----5----5---|

Guitar 2
e|----------|
b|----------|
g|--9-------|
d|----------|
a|--7-------|
e|----------|

www.schband.com.br
schband@uol.com.br
Comments