Sugarloaf - Green Eyed Lady Chords & Tabs

 

Green Eyed Lady Chords & Tabs

Sugarloaf Chords & Tabs

Version: 5 Type: Bass Tab 0 ratings
1 star 2 stars 3 stars 4 stars 5 stars
comments

Green Eyed Lady Bass Tab

Green Eyed Lady by Sugarloaf

Tabbed by Michelle Diedrick
michelleeo@hotmail.com


Intro
G |----------------------------------------------------------|
D |---------------2----------------------------2-------------|
A |-------0-2-3-5----------------------0-2-3-5-------2-2-----|
E |-2-3-4---------------0-0------2-3-4-----------------------|

G |----------------------------------------|
D |---------------2---0-0------------------|
A |-------0-2-3-5--------------------------|
E |-2-3-4--------------------3---5-5----5--|
Play the intro once.



Rest for the drum solo.



[ Tab from: http://www.guitartabs.cc/tabs/s/sugarloaf/green_eyed_lady_btab_ver_5.html ]
Riff 1
G |-----------------------------------------------------------------|
D |--------5---------------------5---------------------5------------|
A |-----5-----5--0-1-2--------4-----4--0-1-2--------3-----3--0-1-2--|
E |--0---------------------0---------------------0------------------|

G |---------------------------|
D |---------------------------|
A |---------------------------|
E |---0-6-7-0-4-5-1h2-1h2-----|
Repeat this until the keyboard solo.



Solo
G |---------------------------|
D |---------------------------|
A |---------------------------|
E |---0-6-7-0-4-5-1h2-1h2-----|
Repeat this through the whole keyboard solo.



After the solo, Riff 1 repeats until the end.



Listen to the song for the rhythm and to know when the changes occur.




h-Hammer on


I'm pretty confident about this one, email me with any corrections!
michelleeo@hotmail.com
Comments