Sugarloaf - Green Eyed Lady Chords & Tabs

 

Green Eyed Lady Chords & Tabs

Sugarloaf Chords & Tabs

Version: 4 Type: Bass Tab 0 ratings
1 star 2 stars 3 stars 4 stars 5 stars
comments

Green Eyed Lady Bass Tab

Green Eyed Lady

Sugarloaf/Tabbed by Ryan and Mike Coleman

If you dont play the beginning quickly it wont sound correct
this is the keyboard part transposed to bass

BEGINNING
G |------------------------------------------------------|
D |------------------------------------------------------|
A |-------1-2-3-4-5----5-4----------1-2-3-4-5----5-4-----|
E |-3-4-5---------------------3-4-5----------------------|
[ Tab from: http://www.guitartabs.cc/tabs/s/sugarloaf/green_eyed_lady_btab_ver_4.html ]
G |--------------------------------------------|
D |-----5------------5------------5------------|
A |-0-5---0-1-2--0-4---0-1-2--0-3--0-1-2-------|
E |--------------------------------------------|

RIFF
G |-----------------------------|
D |-----------------------------|
A |-------2---------------------|
E |-0-3-5---0-3-1X2-1X2-0-------|

X-Hammer on


//////////////////////////////////////////////////////////
ryologic@msn.com     Email Me if you want somethin tabbed
Comments