Sugarloaf - Green Eyed Lady Chords & Tabs

 

Green Eyed Lady Chords & Tabs

Sugarloaf Chords & Tabs

Version: 1 Type: Bass Tab 0 ratings
1 star 2 stars 3 stars 4 stars 5 stars
comments

Green Eyed Lady Bass Tab

                           3x
-|---------------------------|-------------------------
-|--------------------------*|-------------------------
-|-----------------5--6--7--*|---7--55-----------------
-|--3--4--5--6--7----------- |----------3---55-----0---

(intro)
[ Tab from: http://www.guitartabs.cc/tabs/s/sugarloaf/green_eyed_lady_btab.html ]
-|-----------------------------------------------------------------
-|--------5----------------------5--------------------5------------
-|-----5-----5---------------4------4--------------3-----3---------
-|--0-----------5-6-7-----0------------5-6-7----0-----------5-6-7--


-|------------------------------
-|------------------------------
-|------------------------------
-|--0--6--7--0--4--5--2-3-2-3---
     
Comments