Sugarhill Gang - Rappers Delight Chords & Tabs

 

Rappers Delight Chords & Tabs

Sugarhill Gang Chords & Tabs

Version: 1 Type: Bass Tab 0 ratings
1 star 2 stars 3 stars 4 stars 5 stars
comments

Rappers Delight Bass Tab

Artist: Sugarhill Gang 
Track: Rappers Delight
Tabbed by: Scotia  **scotia@fatbassline.co.uk** 11/3/01
(Correction)

Dave Miller wrote......"


G:---------------------------------------------------------------------|
D:--------------------------0-2--------------------4---5-4-------------|
A:--------------------0-2-4-----0--0--0--x--0-0--0---0-----0---0--0----|
E:--0--0--0---0-0-2-3------------------------------------------------3-|									 
Rinse, lather, repeat."							

....sorry Dave, but I disagree :o)


Here's my interpretation, with the fingering I use. (Only a wee change.)

[ Tab from: http://www.guitartabs.cc/tabs/s/sugarhill_gang/rappers_delight_btab.html ]
Firstly, there's the intro/interlude part,

G---------------------------|
D---------------------------|	repeated twice on each occasion,
A-----5-7--------7-5--------|
E--------------------7-0----|


and the main riff.

G---------------------------------------------------------------------|
D------------------------------2-----------------4---5-4--------------|
A------------------------2-4-5---0-------------5---5---------0-2-0----|
E--0--0-(x)0---0-0-2-3-5------------5--5---5-5-----------5---------3--|
	 
The bracketed ghost note is only played on the first time through.

Cleanse, tone, moisturise.

Comments