Sugarfree - Tulog Na Chords & Tabs

 

Tulog Na Chords & Tabs

Sugarfree Chords & Tabs

Version: 2 Type: Chords 0 ratings
1 star 2 stars 3 stars 4 stars 5 stars
comments

Tulog Na Chords

   
sugarfree
tulog na
tabbed by lean liganor


     D    D/B   G/B    A5   A/G   A/F#  G/F#
e |--0-----0-----0-----0-----0-----0-----0--|
G |--3-----3-----3-----0-----0-----0-----3--|
D |--2-----2-----0-----2-----2-----2-----0--|
B |--0-----0-----0-----2-----2-----2-----0--|
A |--0-----2-----2-----0-----0-----0-----0--|
E |--0-----0-----0-----0-----3-----2-----2--|

     G    A7sus  A7   Bm7   F#m    G*    D*
e |--0-----0-----0-----2-----2-----3-----3--|
G |--3-----3-----2-----3-----2-----3-----2--|
D |--0-----0-----0-----2-----2-----0-----3--|
B |--0-----2-----2-----4-----4-----0-----0--|
A |--0-----0-----0-----2-----4-----2-----0--|
E |--3-----0-----0-----2-----2-----3-----0--|


I.

       D      D/B
Tulog na mahal ko
 
           G/B        A5     A/G   A/F#
Hayaan na muna natin ang mundong   ito

    D/B
Lika na,
   
          G/B - G/F# - G - A7sus - A7 (FAST AND SYNCOPATED)   
tulog na tayo

       D       D/B
Tulog na mahal ko
[ Tab from: http://www.guitartabs.cc/tabs/s/sugarfree/tulog_na_crd_ver_2.html ]
            G/B        A5     A/G     A/F#
Wag kang lumuha,  malambot ang iyong   kama

     D/B         G/B - A
Saka na    mamroblema


CHORUS:

      D*     Bm7          F#m     G*
Tulog na hayaan na muna natin sila

     D*     Bm7          F#m           G*
Mamaya, hindi ka na nila kaya pang saktan

        G/B           A7sus
Kung matulog, matulog ka na


II.

      D        D/B
Tulog na mahal ko

         G/B         A5     A/G   A/F#     
Nandito lang akong bahala   sa    iyo

     D/B            G/B - G/F# - G - A7sus - A7 (FAST AND SYNCOPATED)    
Sige na,   tulog na muna

      D         D/B
Tulog na, mahal ko

         G/B        A5      A/G    A/F#
At baka bukas ngingiti ka   sa    wakas

          D/B       G/B         - A
At sabay nating harapin ang mundo
        (BACK TO CHORUS)

->i would like to thank ian barrido, maite pablo and trix yumul for inspiring me to do
this. i would like to thank aleli roselo also. this is for all sugarfree fans out there
Comments