Sugarfree - Sinta Chords & Tabs

 

Sinta Chords & Tabs

Sugarfree Chords & Tabs

Version: 1 Type: Chords 0 ratings
1 star 2 stars 3 stars 4 stars 5 stars
comments

Sinta Chords

   
Sinta by Sugarfree
Tabbed by: RVM214!!! ^_^
Kung may mali itama nyo na lang or post another tab para makorek din namin
Mejo Malabo pandinig naming eh di masyadong perpwekto! Tsaka ung chords sa
verse mas maganda kung bass na lang kalabitin nyo para astig nyahahaha!


SMCB!!! RVM214 members:
Allen
Allan
Algene
Roland
Karvin
Francis
Princess


Intro:  G -

E---3----3---3---3---3--------3----3---3---3---3--------|
B---3----1---0---1---3--------3----1---0---1---3--------|
G---0----0---0---0---0--------0----0---0---0---0--------|
D---0-------------------------0-------------------------|
A---2-------------------------2-------------------------|
e---3-------------------------3-------------------------|


    C     C/B        Bb        A

E-----------------------------------0---------------------|
B-----------------------------------0---------------------|
G---5------5---------3--------------2---------------------|
D---5------5---------3--------------2---------------------|
A---3------2---------1--------------0---------------------|
E---------------------------------------------------------|

   Ako'y isang malungkot na bata


      D          D/C#    C               G

E-------------------------------------------------------|
B-------------------------------------------------------|
G-----7-----------7------5------------------------------|
D-----7-----------7------5---------------5--------------|
A-----5-----------4------3---------------5--------------|
e----------------------------------------3--------------|

   Palakad-lakad lang, wala rin namang mapupuntahan


           C        C7            Dm          Fm6

E-------------------------------------------------------|
B-------------------------------------------------------|
G-------------------------------------------------------|
D----------5--------6--------------7-----------6--------|
A----------3--------3--------------3-----------3--------|
e----------x--------x--------------x-----------x--------|

   At madalas, madulas / At n'ung parang ayoko na


      C              G

E-------------------------------------------------------|
B-------------------------------------------------------|
G-----5-------------------------------------------------|
D-----5--------------5----------------------------------|
A-----3--------------5----------------------------------|
e--------------------3----------------------------------|

    Buti nalang nandyan ka...

Chorus:

   D                A          E

   Buti na lang nandyan ka, sinta

   Bm                                  E

   Pa'no na lang ako kung wala ka, sinta

   Bm
   Pa'no na lang ako kung wala ka

   A                    A -
   Pa'no na lang ako...


Verse:2

      C    C/B       Bb       A
   Minsan ako'y naligaw ng daan

         D          D/C#          C             G

   Tinalikuran ng kaibigan at biglang napag-iwanan

           C              C7            Dm          Fm6

   At madalas, ako'y nadulas / At n'ung parang ayoko na

      C              G
     Buti nalang nandyan ka...


Chorus:

   D                A          E
   Buti na lang nandyan ka, sinta


   Bm                                  E
   Pa'no na lang ako kung wala ka, sinta


   Bm
   Pa'no na lang ako kung wala ka


    A                    B
   Pa'no na lang ako.. Pa'no na lang ako..

[ Tab from: http://www.guitartabs.cc/tabs/s/sugarfree/sinta_crd.html ]
   A                    B    A  B
   Pa'no na lang ako.....

(WAAAAAAAAAAA di ko pa alam kords nung gitna!!!)


    C     B7        Bb        A

E---0------2---------1--------------0------------------|
B---1------4---------3--------------0------------------|
G---0------2---------3--------------2------------------|
D---2------4---------3--------------2------------------|
A---3------2---------1--------------0------------------|
E------------------------------------------------------|

   Ako'y isang malungkot na bata


      Dm         C#m          Dm              G

E-----1----------4------------1--------------3----------|
B-----3----------5------------3--------------3----------|
G-----2----------6------------2--------------0----------|
D----------------6---------------------------0----------|
A----------------4---------------------------2----------|
e--------------------------------------------3----------|

   Pa'no kung ligaya ko'y bigla na lang mawala?


           C                 C7        F          Fm

E----------0------------------0--------1------------1---|
B----------1------------------1--------1------------1---|
G----------0------------------3--------2------------1---|
D----------2------------------2--------3------------3---|
A----------3------------------3--------3------------3---|
e----------x------------------x--------1------------1---|

   At sabi mo, "malayo pa'ng bukas, tapos na ang kahapon..."


      C              G
E-----0--------------3----------------------------------|
B-----1--------------3----------------------------------|
G-----0--------------0----------------------------------|
D-----2--------------0----------------------------------|
A-----3--------------2----------------------------------|
e--------------------3----------------------------------|

  ** Ang mahalaga'y ngayon....


Chorus:

       D          A       E
   Nandito ka ngayon, o sinta


   Bm                                  E
   Pa'no na lang ako kung wala ka, sinta


   Bm
   Pa'no na lang ako kung wala ka


   E                    Bm
   Pa'no na lang ako.. Pa'no na lang ako..


   E                    Bm
   Pa'no na lang ako.. kung wala ka....

   E                    B

E-------------------------------------------------------|
B-------------------------------------------------------|
G--9------9---9-----------------------------------------|
D--9------9---9---------9---------------(9)-------------|
A--7------9---7---------9------9------9--9--------------|
e-----------------------7------9--10--9--7--------------|

   E                    B

E-------------------------------------------------------|
B-------------------------------------------------------|
G--9----------------------------------------------------|
D--9------9---11--------9---------------(9)-------------|
A--7------9---11--------9------9------9--9--------------|
e--------(0)--(0)-------7------9--10--9--7--------------|

   E (break break)      B

E-------------------------------------------------------|
B-------------------------------------------------------|
G--9----------------------------------------------------|
D--9--------------------9---------------(9)-------------|
A--7--------------------9------9------9--9--------------|
e-----------------------7------9--10--9--7--------------|

      E

E------------------|
B------------------|
G-----9------------|
D-----9------------|
A-----7------------|
e-----0------------|

PS:
Wag kaung magreklamo kung may mali(ang dami nga eh!) 1st tab palang namin 2!


RVM214 Rulz!!! Guwapo ni Johnson buwahahahahaha
Comments