Sugarfree - Prom Chords & Tabs

 

Prom Chords & Tabs

Sugarfree Chords & Tabs

Version: 1 Type: Tab 3 ratings
1 star 2 stars 3 stars 4 stars 5 stars
comments

Prom Tab

   
Song: Prom
Artist: Sugarfree
Album: Dramachine
Tabber: blah\m/

Standard Tuning

Intro:
(~ - slide yan)
bali ung una, D tpos D/C#m tpos balik sa D tpos G at A
e|-------------------|
B|-------------------|
G|----7-7-7----------|
D|----7-7-7--5--7----|
A|----5~4~5--5--7----|
E|-----------3--5----|


Verse:
1st(bass lng sa part na toh)
2nd(power chords)

e|------------------|
B|------------------|
G|------------------|
D|------------------|
A|------------------|
E|--2--3--5---------|

F#m       G         A
Nanginginig na mga kamay...(Nalalasing sa yong tingin)

----------------------------------

Power Chords F#m G A (palm mute)

e|------------------|
B|------------------|
G|------------------|
D|-4--5--7----------|
A|-4--5--7----------|
E|-2--3--5----------|

F#m       G         A
Pwede ba kitang tabihan...(Habang lumalalim ang gabi...)

-----------------------------------

e|------------------------------|
B|------------------------------|
G|---------9--9~11~9~11~9-------|
D|--9---7--9--9~11~9~11~9-------|
A|--9---7--7--7~9~~7~9~~7-------|
E|--7---5-----------------------|

 Bm         A             Em    Em-F#m-Em-F#m-Em
Ito na ang gabing di malilimutan...

-----------------------------------
    
e|----------------------------|
B|----------------------------|
G|--------9--7--9--11-12------|
D|--9--7--9--7--9--11-12------|
A|--9--7--7--5--7--9--10------|
E|--7--5----------------------|

 Bm         A           Em  D-Em-F#m-G
Dahan-dahan tayong nagtinginan...(Tayo'y naglakad ng dahan-dahan...)

-----------------------------------

Chorus:
    
e|------------------------|
B|------------------------|
G|--7--9--11--12----------|
D|--7--9--11--12----------|
A|--5--7--9---10----------|
E|------------------------|
[ Tab from: http://www.guitartabs.cc/tabs/s/sugarfree/prom_tab.html ]
D             Em
Parang atin ang gabi
F#m           G
Para bang wala tayong katabi
D             Em
At tayo'y sumayaw
F#m           G
Na parang hindi na tayo 
D       Em       F#m     G
Bibitaw

e|---------------------|
B|---------------------|
G|-7--9--5-------------|
D|-7--9--5-------------|
A|-5--7--3-------------|
E|---------------------|

D   Em   Cm
Bibitaw...

----------------------------------

Bridge:

e|---------------------|
B|---------------------|
G|---------------------|
D|--9--10--------------|
A|--9--10--------------|
E|--7--8---------------|

Bm
Matapos man ang sayaw...
Cm                   Bm   Cm
Pangakong di ka bibitaw.. Aaw...

---------------------------------

Last Chorus:
Sa part na toh, pinaglalaruan na ni Ebe ung chords...(slide as necessary)

part1: ito ung matatapos na ung chorus, sa may part na "bibitaw..."

e|-----------------------|
B|-----------------------|
G|--7-6-7-9-7------------|
D|--x-x-x-x-x--(4x)------|
A|--5-4-5-7-5------------|
E|-----------------------|

part2: wla ng lyrics sa part na toh..  pakinggan nyo muna mabuti.. :P
e|---------------------------------------|
B|---------------------------------------|
G|--7-9-7-6-11--12----7-12-11-9-7--------|
D|--x-x-x-x-x---x-----x-x--x--x-x--------|
A|--5-7-5-4-9---10----5-10-9--7-5--------|
E|---------------------------------------|

part3: ito na ung papunta sa ending!

e|---------------------------------------------------------------|
B|---------------------------------------------------------------|
G|--6-7-6-7-7-9----6-7-6-7-7-9-7---------7-6-7-------------------|
D|--6-7-6-7-7-9----6-7-6-7-7-9-7-(break)-7-6-7-(break!)----------|
A|--4-5-4-5-5-7----4-5-4-5-5-7-5---------5-4-5-------------------|
E|---------------------------------------------------------------|



*note: kung gusto nyo, pwede nyo ring buhayin ung deadstring.. kau na ang bahala.. \m/
Comments