Sugarfree - Prom Chords & Tabs

 

Prom Chords & Tabs

Sugarfree Chords & Tabs

Version: 1 Type: Bass Tab 0 ratings
1 star 2 stars 3 stars 4 stars 5 stars
comments

Prom Bass Tab

e-mail us at dis_bandmates@yahoo.com
version ko lang toh
bahala kayo kung gagamitin niyo
*Warning: This tab is inaacurate

Prom
by Sugarfree
tabbed by Paul Respicio

Intro:
[-------------------------------------------------------------------]
[-------------------------------------------------------------------]
[----555---444---555-----------------------4--5/6---5/4h5-----------] 
[-----------------------333----555555555----------------------------]


[--------------------------------------------------------------------]
[--------------------------------------------------------------------]
[----555---444---555-------------------------------------------------]
[-----------------------333-----55555555555555555555555--------------]

Verse:
[--------------------------------------------------------------------]
[--------------------------------------------------------------------]
[--------------------------------------------------------------------]   x4
[----2(x madami)------3-(x madami rin)-----------5-(x madami also)---]


Refrain:
[--------------------------------------------------------------------]
[--------------------------------------------------------------------]
[-------------------777-9-7-9-7-----------------77777-7/9-9-9-9/10---]
[---777777--555555-----------------77777--55555----------------------]


Chorus:
[--------------------------------------------------------------------]
[--------------------------------------------------------------------]
[---55555---77777----99999-10-10-10-10-10-10-9-10-12-10-9------------]  x3
[--------------------------------------------------------------------]


[--------------------------------------------------------------------]
[--------------------------------------------------------------------]
[---55555---77777----33333-555-333-----------------------------------]
[--------------------------------------------------------------------]

Verse:
[--------------------------------------------------------------------]
[--------------------------------------------------------------------]
[--------------------------------------------------------------------]   x4
[----2(x madami)------3-(x madami rin)-----------5-(x madami also)---]


sa fourth time either guitar or bass yung gagawa ng Riff na toh
[ Tab from: http://www.guitartabs.cc/tabs/s/sugarfree/prom_btab.html ]
[--------------------------------------------------------------------]
[---12---------11-----------10-----------------9--------------10-----]
[--------------------------------------------------------------------]   
[--------------------------------------------------------------------]

Refrain:
[--------------------------------------------------------------------]
[--------------------------------------------------------------------]
[-------------------777-9-7-9-7-----------------77777-7/9-9-9-9/10---]
[---777777--555555-----------------77777--55555----------------------]


Chorus:
[--------------------------------------------------------------------]
[--------------------------------------------------------------------]
[---55555---77777----99999-10-10-10-10-10-10-9-10-12-10-9------------]  x4
[--------------------------------------------------------------------]

Adlib:
[--------------------------------------------------------------------]
[--------------------------------------------------------------------]
[--------------------------------------------------------------------]
[----77777777--------88888888----77777777------88888888----555555----]

Drum Solo


Chorus:
[--------------------------------------------------------------------]
[--------------------------------------------------------------------]
[---55555---77777----99999-10-10-10-10-10-10-9-10-12-10-9------------]  x2
[--------------------------------------------------------------------]

Outro:
[--------------------------------------------------------------------]
[--------------------------------------------------------------------]
[---55555--444--4/7/5------------------------------------------------] x4
[--------------------------------------------------------------------]

[--------------------------------------------------------------------]
[--------------------------------------------------------------------]
[--55555--777-5--444-4/999-9/10-10-10----555-5/10-10-10-999-7--5555--]
[--------------------------------------------------------------------]

[--------------------------------------------------------------------]
[--------------------------------------------------------------------]
[-44-55555-44-55555-77777777-44-55555-44-555-7777-5(pause)-----------]
[--------------------------------------------------------------------]

[---------------------------------------]
[---------------------------------------]
[---5---4---5---------------------------]
[---------------------------------------]
Comments