Sugarfree - Makita Kang Muli Chords & Tabs

 

Makita Kang Muli Chords & Tabs

Sugarfree Chords & Tabs

Version: 1 Type: Bass Tab

Makita Kang Muli Bass Tab

Song Name   : Makita kang muli	
Band Name   : Sugarfree
Tabbed By   : Jan Michael Dimpas
              Center for Industrial Technology & Enterprise(CITE)
 
			Please Rate!
            ----------------------------------
                      MAKITA KANG MULI
            ----------------------------------

         For comments: email me: janmichael_dimpas2004@yahoo.com 
                     : see me in friendster.

STANDARD TUNNING:

[INTRO]
 

 G|------------------------------|--------------------------------|
 D|------------------------------|--------------------------------|
 A|-----10/11-10-----------------|--------------------------------|
 E|---8----------12-11-10-8-3----|---3-33-3---8-88-8---8/10-------|


vERSE I.


 G|-----------------------------------------|
 D|-----------------------------------------|
 A|-----------------------------------------|
 E|--0-00-0--2-22-2---3-33-3---5-55-5-------|


 G|-----------------------------------------|
 D|-----------------------------------------|
 A|-----------------------------------------|
 E|--0-00-0--2-22-2---3--3-5-7-8-88---------|


REFRAIN:



 G|--------------------------------------------------------------------|
 D|--------------------------------------------------------------------|
 A|--------------------------------------------------------------------|
 E|--5-55-5---7-77-7---5-55-5----7-77-7--8-88-8--10-10-10-10-10-10-----|


CHORUS:



 G|------------------------------------------------------|
 D|------------------------------------------------------|
 A|--------------------------10/11-10--------------------|
 E|--3333/--7777---8888-888-----------12-11-10-8-3-------|


 G|-----------------------------------------|
 D|-----------------------------------------|
 A|-----------------------------------------|
 E|--3333/--7777---8888-888-----------------|

[ Tab from: http://www.guitartabs.cc/tabs/s/sugarfree/makita_kang_muli_btab.html ]
 G|-------------------------------------------------|
 D|-------------------------------------------------|
 A|-------------------------------------------------|
 E|--10-10-10-10--0000--2222--3333---8888-----------|


INTERVAL:


 G|-----------------------------------------|
 D|-----------------------------------------|
 A|-----------------------------------------|
 E|--3-33-3----8-88-8---8/10----------------|




vERSE II.


 G|-----------------------------------------|
 D|-----------------------------------------|
 A|-----------------------------------------|
 E|--0-00-0--2-22-2---3-33-3---5-55-5-------|


 G|-----------------------------------------|
 D|-----------------------------------------|
 A|-----------------------------------------|
 E|--0-00-0--2-22-2---3--3-5-7-8-88---------|


REFRAIN:



 G|----------------------------------------------------------------------|
 D|----------------------------------------------------------------------|
 A|----------------------------------------------------------------------|
 E|--5-55-5---7-77-7---5-55-5----7-77-7--8-88-8--10-10-10-10-10-10-------|


CHORUS:



 G|------------------------------------------------------|
 D|------------------------------------------------------|
 A|--------------------------10/11-10--------------------|
 E|--3333/--7777---8888-888-----------12-11-10-8-3-------|


 G|-----------------------------------------|
 D|-----------------------------------------|
 A|-----------------------------------------|
 E|--3333/--7777---8888-888-----------------|


 G|-------------------------------------------------|
 D|-------------------------------------------------|
 A|-------------------------------------------------|
 E|--10-10-10-10--0000--2222--3333---8888-----------|



OUTRO:


 G|-------------------------------|
 D|-------------------------------|
 A|------------3-33-3-------------|
 E|--3-33-3--------------3--------|