Sugarfree - Kwarto Chords & Tabs

 

Kwarto Chords & Tabs

Sugarfree Chords & Tabs

Version: 1 Type: Tab 0 ratings
1 star 2 stars 3 stars 4 stars 5 stars
comments

Kwarto Tab

   
SONG TITLE : kWaRtO
BAND : sUgArFrEe
ALBUM : dRaMaChInE
TABBED BY : jUlJul (chupuclues@yahoo.com) if u have corrections 

Hi sa mga taga BSU-LHS! 
Have you seen the video?! That batang-x girl really has grown-up.

PLEASE RATE IT.

INTRO: 
*acoustic*
       Asus    Dsus/F#
e|----000000---000000-------|
B|----000000---333333-------|
G|----222222---222222-------| play 2x
D|----222222---000000-------|
A|----000000---000000-------|
E|-------------222222-------|

*bass and drums enter* -----> tingnan nyo na lang ung bass tab na ako rin  
                              ang nagsulat. Nyahahahahahah!
----> repeat 2x ulit

VERSE:
* figure out the timing for yourself*
       Asus             Dsus/F#
e|----000000------------000000--|
B|----000000------------333333--|
G|----222222------------222222--|
D|----222222------------000000--|
A|----000000------------000000--|
E|----------------------222222--|
Naglilinis ako ng aking kwarto
Napunong-puno ng galit at damit
Mga bagay na hindi ko na kailangan
Nakaraang huindi na pwedeng pagpaliban

Hu.....hu..hu
Hu.....hu..hu 

Mga liham ng nilihim kong pag-ibig 
At litrato ng kahapong maligalig
Dahan-dahan kong inipon 
Ngunit ngayon kailangan nang itapon

PRE-CHORUS:
       Asus       A7
e|----000000----000000---|
B|----222222----222222---|
G|----222222----000000---|
D|----222222----222222---|
A|----000000----000000---|
E|-----------------------|

CHORUS:
*distortion*
e|--------------------------------------------------------|
B|--------------------------------------------------------|ung 244 doblehin
G|--77777777--99999999--66666666--77777777--44444444--*/7-|nyo bale 16 
D|--77777777--99999999--66666666--77777777--44444444---/7-|times 
A|--55555555--77777777--44444444--55555555--22222222---/5-|
E|--------------------------------------------------------|
‘Di ko na kayang mabuhay sa kahapon         kaya mula ngayon,*mula ngayon

POST CHORUS:  Asus   Dsus/F#    2x

VERSE 2:  same as verse 1
May jacket mong nabubulok sa sulok
Nainaalikabok na sa lungkot
May panyong ilang ulit nang niluhaan 
Isang patak sa bawat beses na tayo’y .........

---->Same as pre-chorus but this time may break 
     nasaktahhhhahaaan......... *BREAK*
[ Tab from: http://www.guitartabs.cc/tabs/s/sugarfree/kwarto_tab.html ]
CHORUS: 
/ - slide up
e|---------------------------------------------------------------|
B|---------------------------------------------------------------|16 times
G|--77777777--99999999--66666666--77777777--44444444---/77777777-|ung 244
D|--77777777--99999999--66666666--77777777--44444444---/77777777-|
A|--55555555--77777777--44444444--55555555--22222222---/55555555-|
E|---------------------------------------------------------------|
‘Di ko na kayang mabuhay sa kahapon        kaya mula ngayon, mula ngayoh...
       Asus    Dsus/F#
e|----000000---000000-------|
B|----000000---333333-------|
G|----222222---222222-------| *acoustic lang ulit*
D|----222222---000000-------|
A|----000000---000000-------|
E|-------------222222-------|
yohhhhhhhhhohhhhhhhhn!!!, mula ngayon.

*bass ad-lib* *drums enters*
chords used during the ad-lib : Asus   Dsus/F#     4x

*n case you want it* 4 LINES LANG KC NGA BASS YAN E
AD-LIB: (BASS)
G|------------------------------------------------------
D|--------------------------------------------10/12-----
A|-------------------------10-8v--pause—9h10—-----------
E|----9-9-/5-/7h9----9h10-------------------------------

-----------------------------------------------------------------
-----------------------------------------------------------------
-11-12-11-12-11---7-7------------------/11--9-7------------------
------------------------9-7-9-7-9-7-5------------11-9-11-9-11-9—

------------|
------------| h – hammer-on , v – vibrato 
-/11--9-7v--|
------------|

OUTRO:
*silence*
e|----0~--------------------0~-------|
B|----0~--------------------3~-------|
G|----2~--------------------2~-------| *acoustic lang ulit*
D|----2~--------------------0~-------| ~ - let ring
A|----0~--------------------0~-------|
E|--------------------------2~-------|
      Alaala ng lumuluhang kahapon
      Dahan-dahan ko na ring kinakahon
      Natagpuan ko na ang tunay kong ligaya
      Lumabas ako ng kwartot naro’n sya

*strum nyo na ung chords* *bass and drums enter*

magapapaalam na sa ‘yo ang aking kwarto (2x)
magpapaalam na sa ‘yo (2x)
     Asus ~~~~
magpapaalam na sa ‘yo ang aking kwarto........


Hi sa mga taga BSU-LHS! 
Hi to my bandmates rona, gershon, dave at kay bumbay. Sa lahat na sumuporta samen
nung concert tulad nina ate avix at Filipino club, salamat!


Comments