Sugarfree - Kwarto Chords & Tabs

 

Kwarto Chords & Tabs

Sugarfree Chords & Tabs

Version: 2 Type: Bass Tab 0 ratings
1 star 2 stars 3 stars 4 stars 5 stars
comments

Kwarto Bass Tab

   
artist: sugarfree
song: kwarto
tabbed by: melvin_tagalog

     LEGEND:       
        S=    16th note
        E=     8th note
        Q= quarter note
        /=     slide up
        \=   slide down

INTRO: acoustic guitar only
       [pasok ung base kasabay ng drums after four measures]
    
     [do this on the first chord,   [do this on the second chord,
     *sabay ung bagsak ng "7" sa     *sabay ung bagsak ng "4" sa
      bagsak ng first  chord  ng     bagsak ng first  chord  ng
      acoustic guitar]               acoustic guitar]
     G|-------------|               |-----------------|
     D|-----2/7-----|               |------12\4-------| 
     A|-------------|               |-----------------|
     E|-------------|               |-----------------|

VERSE: [do intro pattern]     LAST CHORD BEFORE CHORUS
                                 E E E E E E E
G|-------------------|        |------------------------|
D|---2/7---12\4------|        |--7-7-7-7-7-7-7[hold]---|
A|-------------------|        |------------------------|
E|-------------------|        |------------------------|


CHORUS:

    E E E E E E E E
G|--------------------|
D|--0-0-0-0-0-0-0-0---|
A|--------------------|
E|--------------------|

    E E E E E E E E
G|--------------------|
D|--2-2-2-2-2-2-2-2---|
A|--------------------|
E|--------------------|

    E E E E E E E E 
G|--------------------|
D|--------------------|
A|--4-4-4-4-4-4-4-4---|
E|--------------------|

    SSSSQ   SSSSSSSS
G|--------------------|
D|--------------------|
A|--------------------|
E|--22222---22222222--|

    E E E E E E E E E     E E E E E E E E    [let ring]
G|---------------------|--------------------|------|
D|---------------------|--------------------|------|
A|--2-2-2-2-2-2-2-2-2--|--2-2-2-2-2-2-2-2/--|-/10--|
E|---------------------|--------------------|------|

LAST CHORD                INTRO:
BEFORE VERSE2:   
    Q   Q  Q                Q
G|-----------             ----------|---------|
D|-----------             --2/7-----|--12\4---|
A|--10--9--7-             ----------|---------|
E|-----------             ----------|---------|
[ Tab from: http://www.guitartabs.cc/tabs/s/sugarfree/kwarto_btab_ver_2.html ]
VERSE2: [do intro pattern]     LAST CHORD BEFORE CHORUS
                                 E E E E E E E 
G|-------------------|        |------------------------|
D|---2/7---12\4------|        |--7-7-7-7-7-7-7[hold]---|
A|-------------------|        |------------------------|
E|-------------------|        |------------------------|


CHORUS2:

    E E E E E E E E
G|--------------------|
D|--0-0-0-0-0-0-0-0---|
A|--------------------|
E|--------------------|

    E E E E E E E E
G|--------------------|
D|--2-2-2-2-2-2-2-2---|
A|--------------------|
E|--------------------|

    E E E E E E E E 
G|--------------------|
D|--------------------|
A|--4-4-4-4-4-4-4-4---|
E|--------------------|

    SSSSQ   SSSSSSSS
G|--------------------|
D|--------------------|
A|--------------------|
E|--22222---22222222--|

    E E E E E E E E E     E E E E E E E E       E E E E E E E E[let ring]
G|---------------------|--------------------|--------------------|
D|---------------------|--------------------|--------------------|
A|--2-2-2-2-2-2-2-2-2--|--2-2-2-2-2-2-2-2/--|--/5-5-5-5-5-5-5-5--|
E|---------------------|--------------------|--------------------|

BASS SOLO:

[tacet for four measures]

G|---------------------------------18----19-19-18-18-18-16--14\---|
D|----7/11----15-17-15----15-17-19--------------------------------|
A|----------------------------------------------------------------|
E|----------------------------------------------------------------|

G|-----------------------------18------|
D|----11--9-11--9--11--9--7/------19---|
A|-------------------------------------|
E|-------------------------------------|
                                                  [let ring]
G|---------------------------------18------|----------|
D|----18--16-18--16--18--16--14/------19---|----2/7---|
A|-----------------------------------------|----------|
E|-----------------------------------------|----------|


OUTRO: [after "lumabas ako ng kwarto't naroon sya"]

                      *do this on the last line
                       [let ring]
G|-------------------|--------|
D|----2/7------12\4--|---2/7--|
A|-------------------|--------|
E|-------------------|--------|
Comments