Sugarfree - Kandila Chords & Tabs

 

Kandila Chords & Tabs

Sugarfree Chords & Tabs

Version: 1 Type: Tab 0 ratings
1 star 2 stars 3 stars 4 stars 5 stars
comments

Kandila Tab

x|-5-4-2-2/4------0-0-0----------|
x|-3-3-3-3--------0-0-0----------|
x|-2-2-2-2-----12-2-1/2----------|
x|-0-0-0-0-----22-2-2-2----------|
x|-------------00-0-0-0----------|
x|-------------------------------|
[ Tab from: http://www.guitartabs.cc/tabs/s/sugarfree/kandila_tab.html ]
x|-5-4-2-2/4------0-0-----------|
x|-3-3-3-3--------0-0-----------|
x|-2-2-2-2-----12-2-2-----------|
x|-0-0-0-0-----22-2-2-----------|
x|-------------00-0-0-----------|
x|------------------2-----------|

verse/chorus:

x|-5-4-2-2/4--0-0-0-------------|
x|-3-3-3-3----0-0-0-------------|
x|-2-2-2-2----2-1/2-------------|
x|-0-0-0-0----2-2-2-------------|
x|------------0-0-0-------------|
x|------------------------------|
Comments