Sugarfree - Hari Ng Sablay Chords & Tabs

 

Hari Ng Sablay Chords & Tabs

Sugarfree Chords & Tabs

Version: 2 Type: Bass Tab 0 ratings
1 star 2 stars 3 stars 4 stars 5 stars
comments

Hari Ng Sablay Bass Tab

   
Hari ng Sablay
Sugarfree
Dramachine
Bass tab

Intro:
G--------------------|
D--------------------|
A-2-3~------2-3~-----|
E------2-3~------2-3-|

G----------------------|
D-----5-5-4------------|
A-2-3------------5-5-2-| 4x
E------------2-3-------|

Verse 1:
G------------------|
D------------------|
A-3-------2-3------| 
E----2-3-------2-3-|

G--------------------|
D--------------------|
A-2-3-------2-3------| 
E------2-3-------2-3-|

Verse 2:
G-------------------------------------------|
D-------------------------------------------|
A-2-3-3-3-3-3-3-3-3-3-----------------------| 4x
E---------------------2-3-3-3-3-3-3-3-3-3-3-|

Refrain:
G-----------------------------------------|
D-----------------------------------------|
A-----7-5h7-----7-5h7--3-3-3-3-3/10-9-7-5-|
E-0-0-------0-0---------------------------|

G-----------------------------------------|
D-----------------------------------------|
A-----7-5h7-----7-5h7--3-3-3-3-3/10-9-7-5-|
E-0-0-------0-0---------------------------|

G---------------------------------------------------------------|
D---------------------------------------------------------------|
A---------------------------3-3-3-3-3-3-5-5-5-5-5-5-5-5-5-5-5-5-|
E-5-5-5-5-5-5-5-5-5-5-5-5-5-------------------------------------|

Chorus 1:
G----------------------------------------------------|
D----------------------------------------------------|
A---------3~-------4-2~----3~----5-5-5-5-5-5-5-5-5-5-|
E-3~-------------5-----------------------------------|

G--------------------------------------------------|
D--------------------------------------------------|
A--------------------------------------------------|
E-3-3-3-3-3-3-3/15-15-15-15-15-8-8-8-8-8-8-8-8-8-8-|

G-------------------------------------------------------------|
D-------------------------------------------------------------|
A---------------------------3-3-3-3-3-3-5-5-5-5-5-5-5-5-5-5-5-|
E-5-5-5-5-5-5-5-5-5-5-5-5-5-----------------------------------|

G--------------|
D--------------|
A-/10-10-9-7-5-|
E--------------|

Verse 3:
G--------------------|
D--------------------|
A-2-3-------2-3------| 
E------2-3-------2-3-|

G--------------------|
D--------------------|
A-2-3-------2-3------| 
E------2-3-------2-3-|

Verse 4:
G-------------------------------------------|
D-------------------------------------------|
A-2-3-3-3-3-3-3-3-3-3-----------------------| 4x
E---------------------2-3-3-3-3-3-3-3-3-3-3-|

(Repeat Refrain)

Chorus 2:
G--------------------------------------------------|
D--------------------------------------------------|
A--------------------------------------------------|
E-3-3-3-3-3-3-3/15-15-15-15-15-8-8-8-8-8-8-8-8-8-8-|

G-----------------------------------------------------------|
D-----------------------------------------------------------|
A---4-2-2-2-2-2-2-2-2-2-2-3-3-3-3-3-3-3-5-5-5-5-5-5-5-5-5-5-|
E-5---------------------------------------------------------|

G--------------------------------------------------|
D--------------------------------------------------|
A--------------------------------------------------|
E-3-3-3-3-3-3-3/15-15-15-15-15-8-8-8-8-8-8-8-8-8-8-|
[ Tab from: http://www.guitartabs.cc/tabs/s/sugarfree/hari_ng_sablay_btab_ver_2.html ]
G-------------------------------------------------------|
D-------------------------------------------------------|
A---------------------------3-3-3-3-3-3-5-5-5-5-5-5-5-5-|
E-5-5-5-5-5-5-5-5-5-5-5-5-5-----------------------------|

Adlib:
G---------------------------|
D---------------------------|
A-2-3---5-7----10-8---10-12-| 2x
E---------------------------|

G---------------------------------------------------|
D---------------------------------------------------|
A--3-3-3-3-3-3-3-3-3-3-5-7--------------------------|
E--------------------------1-1-1-1-1-1-1-1-1-1-5-3--|

G---------------------------------------------------|
D---------------------------------------------------|
A--3-3-3-3-3-3-3-3-3-3-5-7--------------------------|
E--------------------------1-1-1-1-1-1-1-1-1-1-5-3--|

G---------------------|
D---------------------|
A---------------------|
E-3-3-3-3-3-3-3-3-3-3-|

Bridge:
G---------------------------------------------------------------------|
D---------------------------------------------------------------------|
A---------------------10-9-7-5------7-5h7-----7-5h7-3-3-3-3-3/10-9-7-5|
E-------------------------------0-0-------0-0-------------------------|
Ooh.. Ayoko ng magsori..

G------------------------------------------------------------------|
D------------------------------------------------------------------|
A------------------------------------------------------------------|
E-5-5-5-5-5-5-5-5-5-5-5-5-5-8-8-8-8-8-8-10-10-10-10-10-10-10-10-10-|

G----------------|
D----------------|
A----------------|
E-15-14-12-10\\\-|

G----------------------------------------------------------|
D----------------------------------------------------------|
A----------------------------------------------------------|
E-\\\3-3-3-3-3-3-3/15-15-15-15-15-15-8-8-8-8-8-8-8-8-8-8-8-|

G---------------------------------------------------------------|
D---------------------------------------------------------------|
A---4-2-2-2-2-2-2-2-2-2-2-3-3-3-3-3-3-3-3-3-5-5-5-5-5-5-5-5-5-5-|
E-5-------------------------------------------------------------|

G--------------------------------------------------------|
D--------------------------------------------------------|
A--------------------------------------------------------|
E-3-3-3-3-3-3-3/15-15-15-15-15-15-15-8-8-8-8-8-8-8-8-8-8-|

G-------------------------------------------------------|
D-------------------------------------------------------|
A---------------------------3-3-3-3-3-3-5-5-5-5-5-5-5-5-|
E-5-5-5-5-5-5-5-5-5-5-5-5-5-----------------------------|

Outro:
G-------------------------------------------|
D-------------------------------------------|
A-2-3-3-3-3-3-3-3-3-3-----------------------| 4x
E---------------------2-3-3-3-3-3-3-3-3-3-3-|

G----------------------|
D-----5-5-4------------|
A-2-3------------5-5-2-|
E------------2-3-------|

G----------------|
D-----5-5-4------|
A-2-3------------| 
E------------2-3-|

-----------------------------------------------------------------------
Di ko alam kung tama na ba to'. Sana tama.. Di naman ako bass guitarist talaga. Wala
lang, gusto ko lang gumawa para makatulong sa iba (sa di pa marunong masyado).
Pagtiisan niyo nalang to.. Tingnan niyo nalang kung tama ung pagka-kapa ko dito.
Kung marami 'tong sablay, sabihin niyo nalang na "Ako ang Hari ng Sablay" (hehe)..
Paki-rate nalang po sa itaas.. 

Kumusta sa mga kabanda ko dito sa Tacloban, ang "FIGURE05": Gil, Richard, Christian,
Lyan & Philip..

For comments & suggestions: cicatrix17@yahoo.com 

[ C!C@trix ]
Christopher Co (FIGURE05)
Tacloban City
Comments