Sugarfree - Hari Ng Sablay Chords & Tabs

 

Hari Ng Sablay Chords & Tabs

Sugarfree Chords & Tabs

Version: 1 Type: Bass Tab 0 ratings
1 star 2 stars 3 stars 4 stars 5 stars
comments

Hari Ng Sablay Bass Tab

   
Hari ng Sablay
sugarfree
dramachine

Ito tama promise ^_^
********************************************************
Copyright: kahit san nyo gamitin wag nyo lang aangkinin!
********************************************************
from SMCB
tabbed by RVM 214: algene  bass
                   allen   rhythm
                   allan   vocals
                   francis lead
                   karvin  drums
                   tetet   vocals din
                   roland  tambourine... at keyboard hehe ^_^

STANDARD
INTRO:

   C9       G       (6x)
--3-3------3-3---|
--3-3------3-3---|
--0-0------0-0---|
--0-0------0-0---|
--2-3------0-2---|
--X-X------2-3---|

bass:
      C9         G
-------------|------------|
------5-5-4--|------------|
-2-3---------|------5-5-2-|
-------------|2-3---------|

VERSE I: (gawin nyo rin ung gaya sa intro para mas astig)
C9     	      G
Pls. lang wag kang magulat

C9          G
kung bigla akong magkalat

C9       G
mula pa nung pagkabata

C9       G
mistula nang tanga

C9         G        C9         G
san san nadadapa,  san san bumabangga

C9        G             C9        G
ang puso kong kawawa,  may pag-asa pa ba?

REFRAIN:

Em*          C**
ooh, ayoko na magsorry
Em          C
ooh, sawa na ako magsisi
            Am                C           D
pasensya ka na, mabilis lang akong mataranta
[ Tab from: http://www.guitartabs.cc/tabs/s/sugarfree/hari_ng_sablay_btab.html ]
Em* bass                       C**
----------------------------|------------------------|
----------------------------|------------------------|
-------7-7p5h7-------7-7p5h7|-3-3-3-3-3s10-9-7-5-----|
-0-0------------0-0---------|------------------------|

CHORUS:
         G                       C9
ako ang hari ng sablay, ako ang hari ng sablay
           Bm
hinding hindi makasabay
          C                 D
sabay sa hangin ng aking buhay
 G                      C9
hari ng sablay, ako ang hari ng sablay
         Am            C   D
ako ang hari, ako ang hari


VERSE II:
C9          G
isang tama sampung mali
C9       G
ganyan ako pumili
C9        G       C9        G
di na mababawi   ng puso kong sawi
C9           G
daig pa ang telenovela
C9        G
kung ako ay magdrama
C9         G        C9             G
ganyan ba talaga,  guhit ng aking tadhana?

bridge:

the bass part:
--------------------------|
--------------------------|
2-3---5-7----10-8---10-12-|
--------------------------|

chords nyan C na power chord

bridge part 2:(ung may clap)

C*           F**
huuuuhuhu,  huuuuhuhu
C           F      -   G
huuuuhuhu,  huuuuhuhu, oooowoH

bass:
      C*                   F**
-------------------|-------------------|
-------------------|-------------------|
--3-3-3-3-3-3-5--7-|-------------------|
-------------------|-1-1-1-1-1-1-5-3---|


repeat (ayoko nang magsori) tapos chorus ulit...

OUTRO
tulad ng intro

***END***

sana magustuhan nyo first tab ko sa tingin ko tama naman yan. rate nyo a!!!
sa min din ung naunang tabs ng sinta pero mali pala yun. email nyo lang kami kung 
nyo nung mas tama(yabang no??) tinatamad na kasi ko eh...^_^
algeneagustin@yahoo.com  or allen214_rmi@yahoo.com
Comments