Sugarcult - Youre The One Chords & Tabs

 

Youre The One Chords & Tabs

Sugarcult Chords & Tabs

Version: 3 Type: Tab 0 ratings
1 star 2 stars 3 stars 4 stars 5 stars
comments

Youre The One Tab

   
-------------------------------------------------------------------------------
			  Your The One - SugarCult
-------------------------------------------------------------------------------
Tabbed by:Kyle Wolff	
Email:Drumstckscorcher@hotmail.com

Tuning:Normal

sliding part :

e|---------------------------------------------------------------------------|
B|---------------------------------------------------------------------------|
G|---------------------------------------------------------------------------|
D|-------999\8\777/8/999\8\777/8/999\8\777/8/999-----------------------------|
A|-------999\8\777/8/999\8\777/8/999\8\777/8/999-----------------------------|
E|-------777\6\555/6/777\6\555/6/777\6\555/6/777-----------------------------|

Repeat as need : 

"Kind-of-a-solo"

e|---------------------------------------------------------------------------|
B|---------0-00-0000/7-7-77/10-10-101010\5\4--4/5-----------------next line--|
G|---------------------------------------------------------------------------|
D|---------------------------------------------------------------------------|
A|---------------------------------------------------------------------------|
E|---------------------------------------------------------------------------|

e|---------------------------------------------------------------------------|
B|---------0-00-0000/7-7-77/10-1010\9-9/11/12 slide down---------------------|
G|---------------------------------------------------------------------------|
D|---------------------------------------------------------------------------|
A|---------------------------------------------------------------------------|
E|---------------------------------------------------------------------------|

Then you play the sliding part at the beginning again
[ Tab from: http://www.guitartabs.cc/tabs/s/sugarcult/youre_the_one_tab_ver_3.html ]
e|---------------------------------------------------------------------------|
b|---------------------------------------------------------------------------|
g|--7------5-------4---------------------------------------------------------|
d|--7------5-------4<<<< this part connects to the next part below this part-|
a|--5------3-------2---------------------------------------------------------|
e|---------------------------------------------------------------------------|

----------------------^^^^^ this part is when the singer say's "you the one"-|



Below is the refrain: listen to the song to see the rythem and how many
			times to play

e|---------------------------------------------------------------------------|
B|---------------------------------------------------------------------------|
G|-4-------------------------------------------------------------------------|
D|-4---4-/-5-/-8-\-7----back to beginning of this bar------------------------|
A|-2---4-/-5-/-8-\-7---------------------------------------------------------|
E|-----2-/-3-/-6-\-5---------------------------------------------------------|

back to sliding part
 really you have to listen to the song and figure it out... 
i have provided the notes and everything you just have to take the time to 
figure  the rythems out.

Second time he dose the "kind-of-a-solo"
e|---------------------------------------------------------------------------|
B|0-00-0000/7-7-77/10-10-101010\5\4--5/7 5-5555555-4-2-0-7-10-11-12----------|
G|---------------------------------------------------------------------------|
D|---------------------------------------------------------------------------|
A|---------------------------------------------------------------------------|
E|---------------------------------------------------------------------------|

Refrain part again 

then the beginning part againg while he screems

honestly - this is my first time that if ever cared to wright a guitar tab.
I am so board right now so i figured this one out. The whole song is there
you just need to listen to it to figure out what to play and when.  Every
not in the song is in this guitar tab you just need to have some kind of 
talent and take the time to figure it out.
I leave it to the reader.  ENJOY! 

E-mail me for questions or stuff i need to fix... i dont think there
is anything to fix tho... but just in case : 

drumstckscorcher@hotmail.com

| /  slide up
| \  slide down
| h  hammer-on
| p  pull-off
| ~  vibrato
| +  harmonic
| x  Mute note
===============================================================================
Comments