Sugarcult - Youre The One Chords & Tabs

 

Youre The One Chords & Tabs

Sugarcult Chords & Tabs

Version: 1 Type: Tab 0 ratings
1 star 2 stars 3 stars 4 stars 5 stars
comments

Youre The One Tab

------------------------------------------------------------------------------- 
YOU'RE THE ONE - Sugarcult 
------------------------------------------------------------------------------- 

By:Justin Johnson 

INTRO 
G|---------------------------------------------------------------------------| 
D|---------------------------------------------------------------------------| 
A|333-1-0000-----------------------------------------------------------------| 
E|---------------------------------------------------------------------------| 
[ Tab from: http://www.guitartabs.cc/tabs/s/sugarcult/youre_the_one_tab.html ]
Verse 
G|---------------------------------------------------------------------------| 
D|---------------------------------------------------------------------------| 
A|333-1-0000--333-1-0000--333-1-0000--333-1-0000--333-1-0000--333-1-0000-----| 
E|---------------------------------------------------------------------------| 
"everybody knows..." 

Pre-Chorus 
G|---------------------------------------------------------------------------| 
D|--4-4-2(x3)----------------------------------------------------------------| 
A|---------------------------------------------------------------------------| 
E|---------------------------------------------------------------------------| 
"you're the one" 

G|---------------------------------------------------------------------------| 
D|---------------------------------------------------------------------------| 
A|--2(x8)--------------------------------------------------------------------| 
E|----------2(x8)-----3(x8)-----5(x8)----------------------------------------| 
"that's makeing me crazy..." 

Intro(x2) 
Verse(x1) 
Pre-Chorus(x1) 
Chorus(x1) 
Verse(x1) 
Pre-Chorus(x1) 
Intro(x1) 

-------------------------------------------------------------------------------
Comments