Sugarcult - Underwear Chords & Tabs

 

Underwear Chords & Tabs

Sugarcult Chords & Tabs

Version: 1 Type: Chords 0 ratings
1 star 2 stars 3 stars 4 stars 5 stars
comments

Underwear Chords

   
-------------------------------------------------------------------------------
			Underwear---Sugarcult
-------------------------------------------------------------------------------
Tabbed by: Erka
Email:--just ask if u wanna know

Tuning: standard...or maybe my tuning is wrong..watever

Chords::
	Bmaj7	       Gbmaj7	   Emaj7
e|-------x---------------x-----------x-----------|
B|-------7---------------2-----------0-----------|
G|-------7---------------2-----------0-----------|
D|-------7---------------2-----------0-----------|
A|-------x---------------x-----------x-----------|
E|-------7---------------2-----------0-----------|

[ Tab from: http://www.guitartabs.cc/tabs/s/sugarcult/underwear_crd.html ]
Bmaj7
Take a life
    Gmaj7         Emaj7...Gmaj7                
and hold it underwater
Bmaj7             Gmaj7            Emaj7...Gmaj7
Wash the hands of all these things i've done
Bmaj7       Gmaj7            Emaj7...Gmaj7
If the body moves inside the closet
              Bmaj7
all we do is stare
N/C
while she's in her underwear....

Bmaj7, Gmaj7, Emaj7, Gmaj7x3...Bmaj7, Gmaj7, Emaj7(let it ring)
ahh ahh ahhh....


(same as the other verse)
All the eyes 
On every sunday paper
Pictures of the horrid things i've done
If i didnt act on my addictions
then we couldnt stare
while she's in her underwear


ahh ahh ahh...


hah..that's purdy much it, laters
Comments