Sugarcult - Stuck In America Chords & Tabs

 

Stuck In America Chords & Tabs

Sugarcult Chords & Tabs

Version: 5 Type: Tab 0 ratings
1 star 2 stars 3 stars 4 stars 5 stars
comments

Stuck In America Tab

-7---7---7--7-----------------------------------------------------------------
---7---7---7--7---------------------------------------------------------------
------------------------------------------------------------------------------
------------------------------------------------------------------------------
------------------------------------------------------------------------------
------------------------------------------------------------------------------
Continue Until After Better Off On My Own Then Stop

---------------------------------------|--------------------------------------
---------------------------------------|--------------------------------------
--4-------9---6----4-----9--6----------|---4--------9--9--9--9----------------
--4---4---9---6----4--4--9--6----------|---4--4--4--9--9--9--9----4x----9-----
--2---4---7---4----2--4--7--4----------|---2--4--4--7--7--7--7----------------
------2---------------2----------------|------2--2----------------------------
"Today I changed..."

---------------------------------|--------------------------------------------
---------------------------------|--------------------------------------------
--4----------8------11-/13-------|--------------------------------------------
--4--4--4---------------------2x-|--------------------------------------------
--2--4--4----6------9-/11--------|--------------------------------------------
-----2--2------------------------|--------------------------------------------
2nd guitar at the part where there are no drums

----------------------------------------------------------------------------|-
----------------------------------------------------------------------------|-
-4-4-4-4-4-4-4-4-------------------------------------6-6-6-6-6-6-6-6--6/8---|-
-4-4-4-4-4-4-4-4---4-4-4-4-4-4-4-4--2-2-2-2-2-2-2-2--6-6-6-6-6-6-6-6---/--2x|-
-2-2-2-2-2-2-2-2---4-4-4-4-4-4-4-4--2-2-2-2-2-2-2-2--4-4-4-4-4-4-4-4--4/6---|-
-------------------2-2-2-2-2-2-2-2--0-0-0-0-0-0-0-0-------------------------|-
Palm Mute whole part of first verse

---------------------------------------|----------------------------------
---------------------------------------|----------------------------------
-4-4-4------------6-6-6---9-9-9--------|-4-4-4-4--------------------------
-4-4-4----4-4-4---6-6-6---9-9-9-----3x-|-4-4-4-4-4-4-4-4-2-2-2-2-2-2-2-2--
-2-2-2----4-4-4---4-4-4---7-7-7--------|-2-2-2-2-4-4-4-4-2-2-2-2-2-2-2-2--
----------2-2-2------------------------|---------2-2-2-2-0-0-0-0-0-0-0-0—





--------------------------------------------------------------------|---------
--------------------------------------------------------------------|---------
-4-4-4-4-4-4-4-----------------6-6-6-6-6-6-6------------------------|---------
-4-4-4-4-4-4-4-2-2-2-2-2-2-2-2-6-6-6-6-6-6-6-2-2-2-2-2-2-2-2-----2x-|---------
-2-2-2-2-2-2-2-2-2-2-2-2-2-2-2-4-4-4-4-4-4-4-2-2-2-2-2-2-2-2--------|---------
---------------0-0-0-0-0-0-0-0---------------0-0-0-0-0-0-0-0--------|---------
Chorus 
[ Tab from: http://www.guitartabs.cc/tabs/s/sugarcult/stuck_in_america_tab_ver_5.html ]
------------------------------------------------------------------------------
------------------------------------------------------------------------------
-4-4-4-4-4-4-4-----8--6--4--6-6-6-6-6-6-6--9--8--4--6-------------------------
-4-4-4-4-4-4-4--2-----------6-6-6-6-6-6-6-------------------------------------
-2-2-2-2-2-2-2--2--6--4--2--4-4-4-4-4-4-4--7--6--2--4-------------------------
----------------0-------------------------------------------------------------
Guitar 2 chorus

-2-----2-----2-----2----------|-----------------------------------------------
---4-----2-----4-----2--------|-----------------------------------------------
-----4-----4-----4-----4------|-----------------------------------------------
---------------------------4x-|-----------------------------------------------
------------------------------|-----------------------------------------------
------------------------------|-----------------------------------------------
Verse 2

------------------------------------------------------------------------------
--------------------------------------------8/11-/13--------------------------
-8-8-8p6h8p6-8-8-8-6--8-8-8p6h8p6-8-8-6------/---/----------------------------
----------------------------------------9---6/-9-/11--------------------------
------------------------------------------------------------------------------
------------------------------------------------------------------------------


------------------------------------------------------------------------------
----------------------------------12--12--------------------------------------
--9b11-9-8------9b11b9--11b13b11--11--11-9-8--8-9-11--11-9-8--9b11--11b13-----
-----------9-9----------------------------------------------------------------
------------------------------------------------------------------------------
------------------------------------------------------------------------------
Guitar Solo

------------------------------------------------------------------------------
------------------------------------------------------------------------------
-13b15--16-14----14h16--------------------------------------------------------
--------------16--------------------------------------------------------------
------------------------------------------------------------------------------
------------------------------------------------------------------------------

Lyrics 
Today, I change, To late cause everyone stayed the same
Im gone, So long, Break out, cause Im better off on my own

Today I change to late cause every town feels the same
Im different in your distance add up and it makes no difference 

Everybodys talking bout blowing up the neighborhood 
Everyones gonna break it up today 
Everybodys talking bout blowing up the neighborhood 
Wanting to just get awaaaayy

Chorus 
Stuck in america Stuck in america Miles In america Stuck in america 
GO!!

Today I change new town with the same old face
One way two shake this place that I cant escape

Everybodys talking bout blowing up the neighborhood 
Everyones gonna watch it burn today 
Everybodys talking bout waking up there neighborhood 
Im still trying to escape 

Chorus 
Stuck in america Stuck in america Miles In america Stuck in america
Todaayyy Todaayyyyyy 

Everybodys talking bout blowing up the neighborhood 
Everyones gonna break it up today 
Everybodys talking bout blowing up the neighborhood 
All I wanted to do was to get awaayyy

Stuck in america Stuck in america Stuck in america Stuck in america
get AWAYYYYYY GEET AWAAYYY GET AWAYYY GET AWAYYY

Today I change 

Thats its not to bad any questions or comments email 
at heartagram_skater_14@hotmail.com


Comments