Sugarcult - Stuck In America Chords & Tabs

 

Stuck In America Chords & Tabs

Sugarcult Chords & Tabs

Version: 1 Type: Tab 0 ratings
1 star 2 stars 3 stars 4 stars 5 stars
comments

Stuck In America Tab

title:Stuck In America
artist:sugarcult
tabber:punkrocker8523@yahoo.com
i dunno what the tabber was on when he printed this tab.it was completely wrong.
[ Tab from: http://www.guitartabs.cc/tabs/s/sugarcult/stuck_in_america_tab.html ]
e------7--7--7------------------------------------------------------------------------------------------------------------------
b--------7--7--7 ---------------------------------------------------------------------------------------------------------------
g--------------------------------------------------------------------------------------------------------------------------------
D--------------------------------------------------------------------------------------------------------------------------------
A--------------------------------------------------------------------------------------------------------------------------------
E--------------------------------------------------------------------------------------------------------------------------------




e--------------------------------------------------------------------------------------------------------------------------------
b--------------------------------------------------------------------------------------------------------------------------------
g--------------------------------------------------------------------------------------------------------------------------------
D----3------9------------------------------------------------------------------------------------------------------------------
A----1--3---7-------------------------------------------------------------------------------------------------------------------
E--------1----------------------------------------------------------------------------------------------------------------------   you basically use basic power chords for the verse and palme mute.
Comments