Sugarcult - Pretty Girl The Way Chords & Tabs

 

Pretty Girl The Way Chords & Tabs

Sugarcult Chords & Tabs

Version: 1 Type: Tab 1 rating
1 star 2 stars 3 stars 4 stars 5 stars
comments

Pretty Girl The Way Tab

------------------------------------------------------------------------------- 
PRETTY GIRL (The Way) - Sugarcult 
------------------------------------------------------------------------------- 

By: Sahil Kapur (tranquilizer21@hotmail.com) 

INTRO 1 (2X) 
e|-------------| e|-------------| 
B|------6------| B|------4------| 
G|--6----------| G|--5----------| (4X) 
D|----8---8----| D|----3---3----| 
A|-------------| A|-------------| 
E|-------------| E|-------------| 

INTRO 2 (2X) 
e|--14v-13v------------------------------------------------------| 
B|----------14v--------------------------------------------------| 
G|--------------------15v----------15v---------------------------| 
D|------------------------16v-15v------16v-15v-------------------| 
A|---------------------------------------------------------------| 
E|---------------------------------------------------------------| 

VERSE [and that’s what you get for…] 
(soft picking) 
e|----------------------------| 
B|----------------------------| 
G|------6-----------3---------| 
D|----6---6-------3---3-------| 
A|--4-----------1-------------| 
E|----------------------------| 
[ Tab from: http://www.guitartabs.cc/tabs/s/sugarcult/pretty_girl_the_way_tab.html ]
CHORUS [it’s the WAY…] 
e|-----------------------| e|-----------------------| 
B|-----------------------| B|-----------------------| 
G|--3-3-3-3----6-6-6-6---| (3X) G|--8-8-8-8---6-6--5-5---| (1X) 
D|--3-3-3-3----6-6-6-6---| D|--8-8-8-8---6-6--5-5---| 
A|--1-1-1-1----4-4-4-4---| A|--6-6-6-6---4-4--3-3---| 
E|-----------------------| E|-----------------------| 

INTERLUDE 
(Guitar 1) (2x) 
e|------------------------------------------------| 
B|------------------------------------------------| 
G|--3-3-3-3-3-3-3-3--8-8-8-8--6-6--5-5------------| 
D|--3-3-3-3-3-3-3-3--8-8-8-8--6-6--5-5------------| 
A|--1-1-1-1-1-1-1-1--6-6-6-6--4-4--3-3------------| 
E|------------------------------------------------| 

(Guitar 2) (2x) 
e|------------------------------------------------| 
B|------------------------------------------------| 
G|--6-6-6-6--5-5-5-5--8-8-8-8--11-11-10-10--------| 
D|------------------------------------------------| 
A|------------------------------------------------| 
E|------------------------------------------------| 

There it is… Incredible song by Sugarcult, definitely the best on their debut 
album Start Static. I’m 100 ure its all correct, so if any of u can find a 
better way to play it, bring it on. (tranquilizer21@hotmail.com) Enjoy… 

===============================================================================

Comments