Sugarcult - Memory Chords & Tabs

 

Memory Chords & Tabs

Sugarcult Chords & Tabs

Version: 6 Type: Tab 0 ratings
1 star 2 stars 3 stars 4 stars 5 stars
comments

Memory Tab

   
-------------------------------------------------------------------------------
			     MEMORY - Sugarcult
-------------------------------------------------------------------------------
Tabbed by: P8ntballer
Email: darkstar11589@msn.com

Tuning: standard {E,A,D,G,B,E}
Notes: Listen to the song to know strumming

Intro {0.03)
e|-----------------|
B|-----------------|
G|-6-6-6-6-6-6-6-6-|
D|-x-x-x-x-x-x-x-x-|
A|-4-4-4-4-4-4-4-4-|
E|-----------------|

Verse 1 {0.06}
e|-----------------------------------------------------------------|
B|-----------------------------------------------------------------|
G|-6-6-6-6-6-6-6-6-8-8-8-8-8-8-8-8-----------------6-6-6-6-6-6-6-6-| x2
D|-x-x-x-x-x-x-x-x-x-x-x-x-x-x-x-x-4-4-4-4-4-4-4-4-x-x-x-x-x-x-x-x-|
A|-4-4-4-4-4-4-4-4-6-6-6-6-6-6-6-6-x-x-x-x-x-x-x-x-4-4-4-4-4-4-4-4-|
E|---------------------------------2-2-2-2-2-2-2-2-----------------|

Chorus {0.29}
e|-----------------------------------------------------------------|
B|-----------------------------------------------------------------|
G|-6-6-6-6-6-6-6-6-------------------------------------------------| x2
D|-6-6-6-6-6-6-6-6-4-4-4-4-4-4-4-4-8-8-8-8-8-8-8-8-6-6-6-6-6-6-6-6-|
A|-4-4-4-4-4-4-4-4-4-4-4-4-4-4-4-4-8-8-8-8-8-8-8-8-6-6-6-6-6-6-6-6-|
E|-----------------2-2-2-2-2-2-2-2-6-6-6-6-6-6-6-6-4-4-4-4-4-4-4-4-|

Post-Chorus {0.51}
e|-x-x-x-x---x-x---x---x---x---|
B|-x-x-x-x---x-x---x---x---x---|
G|-x-x-x-x-6-x-x---x-4-x-4-x-4-| x2
D|-x-x-x-x-6-x-x-6-x-x-x-x-x-x-|
A|-x-x-x-x-4-x-x-6-x-2-x-2-x-2-|
E|-x-x-x-x---x-x-4-x---x---x---|

Verse 2 {0.57}
Guitar 1 This plays throughout Verse 2
e|-------------------------------------------------------------------------|
B|-------------------------------------------------------------------------|
G|-6-----6-----6---6-----6-----6---8-----8-----8---8-----8-----8-----------| x2
D|-------------------------------------------------------------------------|
A|---4-4---4-4---4---4-4---4-4---4---6-6---6-6---6---6-6---6-6---6---------|
E|-------------------------------------------------------------------------|
p.m------------------------------------------------------------------------

Guitar 2
e|---------------------------------------------------|
B|---------------------------------------------------|
G|-6---------------8-------------------------------6-|
D|-x---------------x---------------4---------------x-|
A|-4---------------6---------------x---------------4-|
E|---------------------------------2-----------------|

e|-----------------------------------------------------------------|
B|-----------------------------------------------------------------|
G|-6-6-6-6-6-6-6-6-8-8-8-8-8-8-8-8-----------------6-6-6-6-6-6-6-6-|
D|-x-x-x-x-x-x-x-x-x-x-x-x-x-x-x-x-4-4-4-4-4-4-4-4-x-x-x-x-x-x-x-x-|
A|-4-4-4-4-4-4-4-4-6-6-6-6-6-6-6-6-x-x-x-x-x-x-x-x-4-4-4-4-4-4-4-4-|
E|---------------------------------2-2-2-2-2-2-2-2-----------------|
p.m.--- ----- ----- ----- ----- ----- ----- ----- ----- -----  

Chorus {1.20}
e|-----------------------------------------------------------------|
B|-----------------------------------------------------------------|
G|-6-6-6-6-6-6-6-6-------------------------------------------------| x2
D|-6-6-6-6-6-6-6-6-4-4-4-4-4-4-4-4-8-8-8-8-8-8-8-8-6-6-6-6-6-6-6-6-|
A|-4-4-4-4-4-4-4-4-4-4-4-4-4-4-4-4-8-8-8-8-8-8-8-8-6-6-6-6-6-6-6-6-|
E|-----------------2-2-2-2-2-2-2-2-6-6-6-6-6-6-6-6-4-4-4-4-4-4-4-4-|
[ Tab from: http://www.guitartabs.cc/tabs/s/sugarcult/memory_tab_ver_6.html ]
Solo {1.45}
e|---------------------------------------------------------------------------|
B|-9-9-9-9-9-9-9-9-9-9-9-7-7-7-6-6-9-9-9-9-9-9-9-9-9-9-9-7-7-7-6-6-2-4-6-----|
G|-----------------------------------------------------------------------8---|
D|---------------------------------------------------------------------------|
A|---------------------------------------------------------------------------|
E|---------------------------------------------------------------------------|

e|----------------------------------4--------------------------------------|
B|-9-9-9-9-9-9-9-9-9-9-9--6~6~6~6~6~-----------9-9-7-7-6-6-6-9-9-7-7-6-6-6-|
G|------------------------------------6-8-10-8-----------------------------|
D|-------------------------------------------------------------------------|
A|-------------------------------------------------------------------------|
E|-------------------------------------------------------------------------|

Bridge {2.05}
e|----------------------------------------------------|
B|----------------------------------------------------|
G|----------------------------------------------------|
D|-4---------------6---------------8---------------15-|
A|-x---------------x---------------x---------------x--|
E|-2---------------4---------------6---------------13-|

Verse 3 {2.22}
e|-----------------------------------------------------------------|
B|-----------------------------------------------------------------|
G|-6-6-6-6-6-6-6-6-8-8-8-8-8-8-8-8-----------------6-6-6-6-6-6-6-6-|
D|-x-x-x-x-x-x-x-x-x-x-x-x-x-x-x-x-4-4-4-4-4-4-4-4-x-x-x-x-x-x-x-x-|
A|-4-4-4-4-4-4-4-4-6-6-6-6-6-6-6-6-x-x-x-x-x-x-x-x-4-4-4-4-4-4-4-4-|
E|---------------------------------2-2-2-2-2-2-2-2-----------------|
p.m.--- --- --- --- --- --- --- --- --- --- --- --- --- --- ---

Chorus {2.34}
e|-----------------------------------------------------------------|
B|-----------------------------------------------------------------|
G|-6-6-6-6-6-6-6-6-------------------------------------------------| x2
D|-6-6-6-6-6-6-6-6-4-4-4-4-4-4-4-4-8-8-8-8-8-8-8-8-6-6-6-6-6-6-6-6-|
A|-4-4-4-4-4-4-4-4-4-4-4-4-4-4-4-4-8-8-8-8-8-8-8-8-6-6-6-6-6-6-6-6-|
E|-----------------2-2-2-2-2-2-2-2-6-6-6-6-6-6-6-6-4-4-4-4-4-4-4-4-|

Outro {2.56}
e|---------------------------------------------------------------------|
B|---------------------------------------------------------------------|
G|-6-6-6-6-6-6-6-6-----------------------------------------------------| x2
D|-6-6-6-6-6-6-6-6-6-6-4-4-4-4-4-4-4-4-8-8-8-8-8-8-8-8-6-6-6-6-6-6-6-6-|
A|-4-4-4-4-4-4-4-4-6-6-4-4-4-4-4-4-4-4-8-8-8-8-8-8-8-8-6-6-6-6-6-6-6-6-|
E|-----------------4-4-2-2-2-2-2-2-2-2-6-6-6-6-6-6-6-6-4-4-4-4-4-4-4-4-|

e|-x-x-x-x---x-x---x---x---x---|
B|-x-x-x-x---x-x---x---x---x---|
G|-x-x-x-x-6-x-x---x-4-x-4-x-4-|
D|-x-x-x-x-6-x-x-6-x-x-x-x-x-x-|
A|-x-x-x-x-4-x-x-6-x-2-x-2-x-2-|
E|-x-x-x-x---x-x-4-x---x---x---|

e|---x-x---x---x---x---|
B|---x-x---x---x---x---|
G|-6-x-x---x-4-x-4-x-4-| x3
D|-6-x-x-6-x-x-x-x-x-x-|
A|-4-x-x-6-x-2-x-2-x-2-|
E|---x-x-4-x---x---x---|


e|-------|
B|-------|
G|-6-----|
D|-6-6-4-|
A|-4-6-4-|
E|---4-2-|
 
| /  slide up
| \  slide down
| h  hammer-on
| p  pull-off
| ~  vibrato
| +  harmonic
| x  Mute note

This is my FIRST Tab and I wanted to make it PERFECT. 
This is my favorite song from the albumn and your should go buy or download it (perferably buy) its worth it
===============================================================================
Comments