Sugarcult - Memory Chords & Tabs

 

Memory Chords & Tabs

Sugarcult Chords & Tabs

Version: 2 Type: Tab 0 ratings
1 star 2 stars 3 stars 4 stars 5 stars
comments

Memory Tab

   
-------------------------------------------------------------------------
			     MEMORY - Sugarcult
-------------------------------------------------------------------------
Tabbed by: Rachelle Bayan
Email: loserific106@hotmail.com

Corrections are very much welcomed.

Tuning: STANDARD, EADGBe



	INTRO
e|------------------x-------------------------------|
B|------------------x-------------------------------|
G|--6-------3---6---x-------------------------------|
D|--6---4---3---6---x-------------------------------|
A|--4---4---1---4---x-------------------------------|
E|------2-----------x-------------------------------|

	VERSE 1
e|--------------------------------------------------|
B|--------------------------------------------------|
G|--6-------3---6-----------------------------------|  2x
D|--6---4---3---6-----------------------------------|
A|--4---4---1---4-----------------------------------|
E|------2-------------------------------------------|

	CHORUS
e|------------------|      |------x-----------------|
B|------------------|      |------x-----------------|
G|--6-------3-------|      |--6---x-----------------|  
D|--6---4---3---6---|  2x  |--6---x-----------------|
A|--4---4---1---6---|      |--4---x-----------------|
E|------2-------4---|      |------x-----------------|

	VERSE 2
e|--------------------------------------------------|
B|--------------------------------------------------|
G|--6-------3---6-----------------------------------|  2x
D|--6---4---3---6-----------------------------------|
A|--4---4---1---4-----------------------------------|
E|------2-------------------------------------------|

	CHORUS
e|--------------------------------------------------|
B|--------------------------------------------------|
G|--6-------3---------------------------------------|  2x
D|--6---4---3---6-----------------------------------|
A|--4---4---1---6-----------------------------------|
E|------2-------4-----------------------------------|

	BRIDGE
e|--------------------------------------------------|
B|--------------------------------------------------|
G|--6-----------6-----------3-------3---------------|
D|--6---6---4---6---6---4---3---4---3---4-----------|
A|--4---6---4---4---6---4---1---4---1---4-----------|
E|------4---2-------4---2-------2-------2-----------|
[ Tab from: http://www.guitartabs.cc/tabs/s/sugarcult/memory_tab_ver_2.html ]
	VERSE 3
e|--------------------------------------------------|
B|--------------------------------------------------|
G|--6-------3---6-----------------------------------|  2x
D|--6---4---3---6-----------------------------------|
A|--4---4---1---4-----------------------------------|
E|------2-------------------------------------------|

	CHORUS
e|--------------------------------------------------|
B|--------------------------------------------------|
G|--6-------3---------------------------------------|  2x
D|--6---4---3---6-----------------------------------|
A|--4---4---1---6-----------------------------------|
E|------2-------4-----------------------------------|

	VERSE 4
e|--------------------------------------------------|
B|--------------------------------------------------|
G|--6-------3---6-----------------------------------|  2x
D|--6---4---3---6-----------------------------------|
A|--4---4---1---4-----------------------------------|
E|------2-------------------------------------------|

	LITTLE RIFF @ THE END
e|--------------------------------------------------|
B|--4---6-------4---6-------------------------------|
G|----------3---------------------------------------|
D|--------------------------------------------------|
A|--------------------------------------------------|
E|--------------------------------------------------|


Cm                    Fm                   Bb                Cm  
This may never start. We could fall apart. And I'd be your memory.
Cm                       Fm                  Bb              Cm
Lost your sense of fear. Feelings insincere. Can I be your memory?

CHORUS
Cm                                   Fm
So get back, back, back to where we last stand.
               Bb                   Gm
Just like I imagine. I could never feel this way.
Cm                                 Fm
So get back, back, back to the disaster.
                     Bb                  Gm
My heart's beating faster. Holding on to feel the same.

This may never start.
I'll tear us apart.
Cannot be your enemy.
Losing half a year.
Waiting for you here
I'd be your anything.

CHORUS

This may never start.
Tearing out my heart.
I'd be your memory.
Lost your sense of fear.
(I'd be your memory)
Feelings disappear.
Can I be your memory?

CHORUS

This could never start.
We could fall apart 
And I'd be your memory.
Lost your sense of fear.
Feelings insincere.
Can I be your memory? [x2]


| x  Mute note (Fret mute)
========================================================
Comments