Sugarcult - Memory Chords & Tabs

 

Memory Chords & Tabs

Sugarcult Chords & Tabs

Version: 10 Type: Tab 0 ratings
1 star 2 stars 3 stars 4 stars 5 stars
comments

Memory Tab

   
-------------------------------------------------------------------------------
			     Memory - Sugarcult
-------------------------------------------------------------------------------
Tabbed by:Colin Irving and Hamish Reilly.
Email:colin383@msn.com and mutatedhamster@hotmail.com.

Tuning:Standard

  Intro:     

e|--------------------------------||----------------------------------|
B|--------------------------------||o---------------------------------|
G|--------------------------------||----------------------------------|
D|-6-6-6-6-6-6-6-6-6-6-6-6-6-6-6-6||--6-6-6-6-6-6-6-6-6-6-6-6-6-6-6-6-|
A|-4-4-4-4-4-4-4-4-4-4-4-4-4-4-4-4||o-4-4-4-4-4-4-4-4-4-4-4-4-4-4-4-4-|
E|--------------------------------||----------------------------------|

e|---------------------------------4-4-4-4-4-4-4-4-4-4-4-4-4-4-4-4-|
B|---------------------------------6-6-6-6-6-6-6-6-6-6-6-6-6-6-6-6-|
G|-6-6-6-6-6-6-6-6-6-6-6-6-6-6-6-6-6-6-6-6-6-6-6-6-6-6-6-6-6-6-6-6-|
D|-6-6-6-6-6-6-6-6-6-6-6-6-6-6-6-6-4-4-4-4-4-4-4-4-4-4-4-4-4-4-4-4-|
A|-3-3-3-3-3-3-3-3-3-3-3-3-3-3-3-3---------------------------------|
E|-----------------------------------------------------------------|

e|----------------------------------||
B|---------------------------------o||    
G|----------------------------------||
D|-6-6-6-6-6-6-6-6-6-6-6-6-6-6-6-6--||
A|-4-4-4-4-4-4-4-4-4-4-4-4-4-4-4-4-o||
E|----------------------------------||

 Chorus: 

e|-----------------------------------------------------------------|  
B|-----------------------------------------------------------------|
G|-6-6-6-6-6-6-6-6-6-6-6-6-6-6-6-6---------------------------------|
D|-6-6-6-6-6-6-6-6-6-6-6-6-6-6-6-6-4-4-4-4-4-4-4-4-4-4-4-4-4-4-4-4-|
A|-4-4-4-4-4-4-4-4-4-4-4-4-4-4-4-4-4-4-4-4-4-4-4-4-4-4-4-4-4-4-4-4-|
E|-4-4-4-4-4-4-4-4-4-4-4-4-4-4-4-4-2-2-2-2-2-2-2-2-2-2-2-2-2-2-2-2-|
                                                                     x2
e|-----------------------------------------------------------------|     Play this at      |-x-x-x-x-|     
B|-----------------------------------------------------------------|     the end of the    |-x-x-x-x-|
G|-----------------------------------------------------------------|     2nd time through. |-x-x-x-x-|   
D|-8-8-8-8-8-8-8-8-8-8-8-8-8-8-8-8-6-6-6-6-6-6-6-6-6-6-6-6-6-6-6-6-|     Only the 1st &    |-x-x-x-x-|
A|-8-8-8-8-8-8-8-8-8-8-8-8-8-8-8-8-6-6-6-6-6-6-6-6-6-6-6-6-6-6-6-6-|     last time you play|-x-x-x-x-|
E|-6-6-6-6-6-6-6-6-6-6-6-6-6-6-6-6-4-4-4-4-4-4-4-4-4-4-4-4-4-4-4-4-|     the chorus.       |-x-x-x-x-|


  Pre-chorus:  

e|---x-------x-----x-----|
B|---x-------x-----x-----|
G|-6-x-------x-----x-----|
D|-6-x-6-6-4-x-4-4-x-4-4-| x2
A|-4-x-6-6-4-x-4-4-x-4-4-|
E|---x-4-4-2-x-2-2-x-2-2-|

 Verse:

 Guitar I
                        pm . . . . . . . . . . . . . . . . . . . . . . . . . . . . . . . . .
e|---------4~-----|      |-----------------------------------------------------------------|
B|---------6~-----|      |-----------------------------------------------------------------|
G|-6~--6~--6~--6~-|      |-6-6-6-6-6-6-6-6-6-6-6-6-6-6-6-6-6-6-6-6-6-6-6-6-6-6-6-6-6-6-6-6-|
D|-6~--6~--4~--6~-|  x2  |-6-6-6-6-6-6-6-6-6-6-6-6-6-6-6-6-6-6-6-6-6-6-6-6-6-6-6-6-6-6-6-6-|
A|-4~--3~------4~-|      |-4-4-4-4-4-4-4-4-4-4-4-4-4-4-4-4-3-3-3-3-3-3-3-3-3-3-3-3-3-3-3-3-|
E|----------------|      |-----------------------------------------------------------------|

pm . . . . . . . . . . . . . . . . . . . . . . . . . . . . . . . . .
e|-4-4-4-4-4-4-4-4-4-4-4-4-4-4-4-4---------------------------------|
B|-6-6-6-6-6-6-6-6-6-6-6-6-6-6-6-6---------------------------------|
G|-6-6-6-6-6-6-6-6-6-6-6-6-6-6-6-6-6-6-6-6-6-6-6-6-6-6-6-6-6-6-6-6-|
D|-4-4-4-4-4-4-4-4-4-4-4-4-4-4-4-4-6-6-6-6-6-6-6-6-6-6-6-6-6-6-6-6-| x2
A|---------------------------------4-4-4-4-4-4-4-4-4-4-4-4-4-4-4-4-|
E|-----------------------------------------------------------------|

 Guitar II
[ Tab from: http://www.guitartabs.cc/tabs/s/sugarcult/memory_tab_ver_10.html ]
e|-----------------------------------------------------------------|
B|-9-x-x-9-x-x-9-x-9-x-x-9-x-x-9-x-7-x-x-7-x-x-7-x-7-x-x-7-x-x-7-x-|
G|-----------------------------------------------------------------|
D|-----------------------------------------------------------------|
A|-----------------------------------------------------------------|
E|-----------------------------------------------------------------|
                                                                     x2
e|-----------------------------------------------------------------|
B|-9-x-x-9-x-x-9-x-9-x-x-9-x-x-9-x-6-x-x-6-x-x-6-x-6-x-x-6-x-x-6-x-|
G|-----------------------------------------------------------------|
D|-----------------------------------------------------------------|
A|-----------------------------------------------------------------|
E|-----------------------------------------------------------------|

 Solo: Guitar I

e|---------------------------------------------------------------------------------------------------------|
B|-----9-9-9-9-9-9-9-9-9-9-7-7-6-6-7-9-9-9-9-9-9-9-9-9-9-7-7-6-6-7-2-4-6-4-7-7-7-7-7-7-7-7-7-7-7-7-7-7-7-7-|
G|-----------------------------------------------------------------4^6^8^6^--------------------------------|
D|-5.0+----------------------------------------------------------------------------------------------------|
A|-5.0+----------------------------------------------------------------------------------------------------|
E|-5.0+----------------------------------------------------------------------------------------------------|

 Guitar II (Guitar II comes in with a pickscrape downwards)

e|---------------------------------------------------------------------------------|
B|----6----6----6----6----9-------------9-9-7-7-6-6-7-7-9-9-7-7-6-6-7--------------|
G|-9^---9^---9^---9^---9^---6--8--10--8----------------------------------------10\-|
D|--------------------------------------------------------------------4~-6~-8~-----|
A|---------------------------------------------------------------------------------|
E|---------------------------------------------------------------------------------|

 Guitar II plays this while guitar I
 plays the first part of the solo:
 
e|---------------------------------|-------------------------------|
B|---------------------------------|-------------------------------|
G|-6-6-6-6-6-6-6-6-6-6-6-6---------|-------------------------------|
D|-6-6-6-6-6-6-6-6-6-6-6-6-6-6-6-4-|-4-4-4-4-4-4-4-4-4-4-4-4-4-4-4-| x2
A|-4-4-4-4-4-4-4-4-4-4-4-4-6-6-6-4-|-4-4-4-4-4-4-4-4-4-4-4-4-4-4-4-|
E|-4-4-4-4-4-4-4-4-4-4-4-4-4-4-4-2-|-2-2-2-2-2-2-2-2-2-2-2-2-2-2-2-|

 Guitar I plays this while guitar II
 plays the second part of the solo:
                                                                                    pm . . . . . . . . . . . . . . . . 
e|---------------------------------|-------------------------------|    The second   |---------------------------------|
B|---------------------------------|-------------------------------|    time through |---------------------------------|
G|---------------------------------|-------------------------------|    miss out the |---------------------------------|
D|-8-8-8-8-8-8-8-8-8-8-8-8-6-6-6-4-|-4-4-4-4-4-4-4-4-4-4-4-4-4-4-4-| x2 last bar and |-x-x-4-x-x-4-x-x-4-x-x-4-x-x-4-4-|
A|-8-8-8-8-8-8-8-8-8-8-8-8-6-6-6-4-|-4-4-4-4-4-4-4-4-4-4-4-4-4-4-4-|    play this:   |-x-x-4-x-x-4-x-x-4-x-x-4-x-x-4-4-|
E|-6-6-6-6-6-6-6-6-6-6-6-6-4-4-4-2-|-2-2-2-2-2-2-2-2-2-2-2-2-2-2-2-|                 |-x-x-2-x-x-2-x-x-2-x-x-2-x-x-2-2-|

 The last time you play the chorus play this
 (not for every bar though):

e|---------------------------------|
B|-9-9-9-9-9-9-9-9-9-9-7-7-6-6-6-6-|
G|---------------------------------|
D|---------------------------------| x4
A|---------------------------------|
E|---------------------------------|
                                     

End:
                                                 
e|----------------|  All guitars                                                   
B|----------------|  end on this.                                                 
G|-6--------------|                                 
D|-6-6-4~-~-~-~-~-|                                
A|-4-6-4~-~-~-~-~-|                                                  
E|-4-4-2~-~-~-~-~-|

Order:
Intro
Chorus
Pre-chorus
Verse
Chorus
solo
Chorus
Pre-chorus x2
End
                             RATE PLEASE!!!!!!!

| /  slide up
| \  slide down
| h  hammer-on
| p  pull-off
| ~  let ring
| +  harmonic
| x  Mute note
| ^  Bend up
===============================================================================
Comments