Sugarcult - Memory Acoustic Chords & Tabs

 

Memory Acoustic Chords & Tabs

Sugarcult Chords & Tabs

Version: 1 Type: Tab 0 ratings
1 star 2 stars 3 stars 4 stars 5 stars
comments

Memory Acoustic Tab

   
-------------------------------------------------------------------------------
			     Memory (Acoustic Version)
				    Sugarcult
-------------------------------------------------------------------------------
Tabbed by: Dave	
Email: dj_spek99@yahoo.com


I haven't seen a complete tab with all the parts for the acoustic version of
Memory, so I figure I'll make one.



Tuning: 1/2 step down

Chords used
  Asus   A7sus4   G      D     Bm      A
e|-0-------0------3------3------2------0--------------------------------------|
B|-3-------3------3------2------3------2--------------------------------------|
G|-2-------0------0------3------4------2--------------------------------------|
D|-0-------2------0------0------4------2--------------------------------------|
A|-0-------0------2------x------2------0--------------------------------------|
E|-x-------x------3------x------x------x--------------------------------------|



Solo
e|---------------------------------------------------------------------------|
B|-5----------------------------------------5--------------------------------|
G|-----7---6--------------7--------7------------7---6---------------7-------7|
D|-------------7----4--5-----4--5-----4--5---------------7----4--5----4--5---|
A|---------------------------------------------------------------------------|
E|---------------------------------------------------------------------------|

e|---------------------------------------------------------------------------|
B|------------------------------------7-------7-----7------------------------|
G|------------7--------7-----7-------------------------------7--------7------|
D|4--5--4--5-----4--5-----4-----4--5----4--5-----4-----4--5-----4--5-----4--5|
A|---------------------------------------------------------------------------|
E|---------------------------------------------------------------------------|

e|---------------------------------------------------------------------------|
B|---------------------------------------------------------------------------|
G|---------------------------------------11-----11---------------------------|
D|5-----5-----7-----7-----9-----9--------------------------------------------|
A|---------------------------------------------------------------------------|
E|---------------------------------------------------------------------------|


Chorus Fill- this part is played throughout the chorus
e|5----5-----5-----5---------------------------------------------------------|
B|-----------------------8-----8-----8-----8-----7-----7-----7-----7-----5---|
G|--7-----7-----7-----7-----7-----7-----7-----7-----7-----7-----7-----7-----7|
D|---------------------------------------------------------------------------|
A|---------------------------------------------------------------------------|
E|---------------------------------------------------------------------------|

e|-----------------------|
B|5-----5-----5----------|
G|---7-----7-----7-------|x2
D|-----------------------|
A|-----------------------|
E|-----------------------|


2nd Verse Mini-Fill- this part is played during the second verse, starting at
"losing half a year"
e|5-------------5-----5------------5-----5-----------------------------------|
B|---------------------------------------------------------------------------|
G|------6---7------7--------6---7-----7--------------------------------------|
D|---------------------------------------------------------------------------|
A|---------------------------------------------------------------------------|
E|---------------------------------------------------------------------------|


Towards the last verse after the last chorus, there's a few random notes here..
sounds a little like this-
e|0--0--0--0------0----------------0---0----0----0--------------0----0-------|
B|------------------------------3--------------------------3-----------------|
G|---------------------------------------------------------------------------|
D|---------------------------------------------------------------------------|
A|---------------------------------------------------------------------------|
E|---------------------------------------------------------------------------|
[ Tab from: http://www.guitartabs.cc/tabs/s/sugarcult/memory_acoustic_tab.html ]
e|---0-----0-----0-----0---------------0--0--0--0----------------------------|
B|3-----3-----3-----3--------------------------------------------------------|
G|---------------------------------------------------------------------------|
D|---------------------------------------------------------------------------|
A|---------------------------------------------------------------------------|
E|---------------------------------------------------------------------------|


After the last Bm is strummed, there's a final little fill to end the song

e|0--2-------0---2------0---2-----0---2-------2------------------------------|
B|-------0-----------0---------0----------0---3------------------------------|
G|--------------------------------------------4------------------------------|
D|--------------------------------------------4------------------------------|
A|--------------------------------------------2------------------------------|
E|--------------------------------------------x------------------------------|



Here are the chords for each section of the song-


INTRO
  Asus   A7sus4   G    Asus    Mute         
e|-0-------0------3------0------x-----|
B|-3-------3------3------3------x-----|
G|-2-------0------0------2------x-----|
D|-0-------2------0------0------x-----|
A|-0-------0------2------0------x-----|
E|-x-------x------3------x------x-----|
The third Asus is played about 6/8th of a bar and the mute for the other 2/8th.


VERSE
  Asus   A7sus4   G    Asus             
e|-0-------0------3------0------|
B|-3-------3------3------3------|
G|-2-------0------0------2------| x2
D|-0-------2------0------0------|
A|-0-------0------2------0------|
E|-x-------x------3------x------|

CHORUS 1
   D      G     Bm      A                    Asus    Mute
e|-2------3------2------0------|          |----0-------x-------------------|
B|-3------3------3------2------|          |----3-------x-------------------|
G|-2------0------4------2------| x2,then  |----2-------x-------------------|
D|-0------0------4------2------|          |----0-------x-------------------|
A|-x------2------2------0------|          |----0-------x-------------------|
E|-x------3------x------x------|          |----x-------x-------------------|
The Asus is only played for about 3/4th a bar and then muted for the other 1/4th.


VERSE 2 - same as VERSE 1, but the little fill is added in here as mentioned above.


CHORUS 2
   D      G     Bm      A                    Mute
e|-2------3------2------0---|           |-----x-----------------------------|
B|-3------3------3------2---|           |-----x-----------------------------|
G|-2------0------4------2---|  x2, then |-----x-----------------------------|
D|-0------0------4------2---|           |-----x-----------------------------|
A|-x------2------2------0---|           |-----x-----------------------------|
E|-x------3------x------x---|           |-----x-----------------------------|
The mute here is played for half a bar.


SOLO
  Asus    A     G                   Bm     A     G             G
e|-0------0-----3-----|          |---2-----0-----3---|      |--3----------|
B|-3------2-----3-----|          |---3-----2-----3---|      |--3----------|
G|-2------2-----0-----| x2, then |---4-----2-----0---| x2,  |--0--.....---|
D|-0------2-----0-----|          |---4-----2-----0---| then |--0----------|
A|-0------0-----2-----|          |---2-----0-----2---|      |--2----------|
E|-x------x-----3-----|          |---x-----x-----3---|      |--3----------|
Here it's hard to describe, but the A chords are played very quickly, for about
2 strums or so. It's better to just listen to the song.  For the second part
of the solo (the Bm, A, G), the G is played indefinitely the second time 
around until the verse begins.


VERSE 3 - same as the other verses, except the very last Asus is only strummed
ONCE and let ring until the chorus starts.


CHORUS 3
   D      G     Bm      A                 
e|-2------3------2------0------|
B|-3------3------3------2------|
G|-2------0------4------2------| x2
D|-0------0------4------2------|
A|-x------2------2------0------|
E|-x------3------x------x------|


OUTRO VERSE 
  Asus    A     G      Bm       A      
e|-0------0-----3-------2-------0------|
B|-3------2-----3-------3-------2------|
G|-2------2-----0-------4-------2------| x2
D|-0------2-----0-------4-------2------|
A|-0------0-----2-------2-------0------|
E|-x------x-----3-------x-------x------|
Again, here the A (for Asus, A, G) is played very quickly. 


OUTRO (starts after the first "Can I be your memory?" line)
   G      A      Bm       
e|-3------0------2--------|
B|-3------2------3--------|
G|-0------2------4--------| 
D|-0------2------4--------|
A|-2------0------2--------|
E|-3------x------x--------|




I think that pretty much covers the whole song! Hope the tab isn't confusing :)


-Dave
Comments