Sugarcult - How Does It Feel Chords & Tabs

 

How Does It Feel Chords & Tabs

Sugarcult Chords & Tabs

Version: 1 Type: Tab 0 ratings
1 star 2 stars 3 stars 4 stars 5 stars
comments

How Does It Feel Tab

 my info
Name:Joe 
Band:rusted edge
krystyn is my hot girl 

 
                           SUGAR CULT

                         How does it feel 

           Intro: guitar 1
 
           e:---------------------------6----------------------
           b:---------------------------6----------------------
           g:--------8------------------7----------------------
           d:--------8---x8-------------8----------------------
           a:--6--6--6------------------8----------------------
           E:---------------------------6----------------------
  
         guitar 2 fill
    
           e:--------------------------------------------------
           b:------------------------------------6h7p6---------
           g:-------------------------------------------7------
           d:--------------------------------------------------
           a:--------------------------------------------------
           E:--------------------------------------------------
[ Tab from: http://www.guitartabs.cc/tabs/s/sugarcult/how_does_it_feel_tab.html ]
          Verse:   plam mute = all chords in verse
                               play the second chord 12x 
                               un plam muted at the end
          
          e:--------------------------------------------------  
          b:--------------------------------------------------  
          g:------------10---------------8--------------------
          d:---8--------10--x8---10------8---x8----X2---------
          a:---8--x8----8--------10-x8---6--------------------
          E:---6------------------8---------------------------
                                                
      
           Chours:
   
         e:---------------------------------------------------
         b:---------------------------------------------------
         g:---------------------------------------------------
         d:--8------3------5------3---------------------------
         a:--8-x8---3--x8--5--x8--3-x8------------------------
         E:--6------1------3------1---------------------------

 
       play verse for solo im not sure of the lead for solo  when he 
       is singing how does it feel slower and in diffenrt tone play 
       the verse chords with out distortion----- rock on  tentnus shot rocks
Comments