Sugarcult - Hate Every Beautiful Day Chords & Tabs

 

Hate Every Beautiful Day Chords & Tabs

Sugarcult Chords & Tabs

Version: 2 Type: Tab 0 ratings
1 star 2 stars 3 stars 4 stars 5 stars
comments

Hate Every Beautiful Day Tab

band-sugarcult
song-hate every beautiful day	
album-start static
tabbed by-sugarcult45 (tmichael88@hotmail.com)

intro
e----4-2---4-2---4-2----4-2-----------
b-------------------------------------
g--------------4------6--------------- 
d--6-----2-----4------6---------------
a--6-----2-----2------4---------------
e--4-----0----------------------------
[ Tab from: http://www.guitartabs.cc/tabs/s/sugarcult/hate_every_beautiful_day_tab_ver_2.html ]
verse
e----------------------
b----------------------
g----------44--66---- 
d--66--22--44--66----
a--66--22--22--44----
e--44--00--------------
“somethins gotta change...” and “faces in the crowd”

pre-chorus and chorus
e---------------------------
b---------------------------
g--------------4444--6666--- 
d--6666--2222--4444--6666---
a--6666--2222--2222--4444---
e--4444--0000---------------
“i can fell it change...” 

e--------
b--------
g--4--6-
d--4--6-
a--2--4-
e--------
“cuz i hate every..”

well thats it im too lazy to figure out the solo so just play the chorus
over the solo it sounds fine. oh yeah if u get the chance go pick up 
the debut cd “start static” if u dont already have it

Comments