Sugarcult - Crying Chords & Tabs

 

Crying Chords & Tabs

Sugarcult Chords & Tabs

Version: 2 Type: Tab 0 ratings
1 star 2 stars 3 stars 4 stars 5 stars
comments

Crying Tab

Song: Crying
By: Sugarcult
Album: Palm Trees And Power Lines
tabbed by: pwrchrdprincess


* = palm mute
~ = let ring
h = hammer on
p = pull off

Intro:
|-----------------------------------------------------------|
|-----------------------------------------------------------|
|--333----------------333-----------------------------------|
|--33333344-55544433--33333344-66643------------------------|
|--11133344-55544433--11133344-66643------------------------|
|-----11122-33322211-----11122-44421------------------------|

|-----------------------------------------------------------|
|-----------------------------------------------------------|
|--333----------------333-----------------------------------|
|--33333344-55544433--33333344-66643333---------------------|
|--11133344-55544433--11133344-66643333---------------------|
|-----11122-33322211-----11122-44421111---------------------|

Verse:
|-----------------------------------------------------------|
|-----------------------------------------------------------|
|--3333333333333333-333-------------------------------------|
|--3333333333333333-33333344-66644433-----------------------| x2
|--1111111111111111-11133344-66644433-----------------------|
|----------------------11122-44422211-----------------------|
   ****************

Chorus:
|-----------------------------------------------------------|
|-----------------------------------------------------------|
|--3333333333333333-----------------------------------------|
|--3333333333333333-6666444433333333------------------------| x2
|--1111111111111111-6666444433333333------------------------|
|-------------------4444222211111111------------------------|

|-----------------------------------------------------------|
|-----------------------------------------------------------|
|--333----------------333-----------------------------------|
|--33333344-66644433--33333344-66644433---------------------| x2
|--11133344-66644433--11133344-66644433---------------------|
|-----11122-44422211-----11122-44422211---------------------|

Interlude:
|-----------------------------------------------------------|
|-----------------------------------------------------------|
|--333---------------333------------------------------------|
|--33333344-55544----33333344-66644433----------------------|
|--11133344-55544----11133344-66644433----------------------|
|-----11122-33322-------11122-44422211----------------------|


Verse (x1)

Chorus (x1)

[ Tab from: http://www.guitartabs.cc/tabs/s/sugarcult/crying_tab_ver_2.html ]
Solo (Guitar 1):
|-----------------------------------------------------------|
|-----------------------------------------------------------|
|-908060505-5/6-908060505-5/6-908060505-5/6-908060503-3/5/6-|
|-----------------------------------------------------------|
|-----------------------------------------------------------|
|-----------------------------------------------------------|

Solo (Guitar 2):
|-----------------------------------------------------------|
|-----------------------------------------------------------|
|-----------------------------------------------------------|
|-706040303-3/4---------------------------------------------| x4
|-706040303-3/4---------------------------------------------|
|-504020101-1/2---------------------------------------------|

Solo 2: ("is there anyone out there")
|-----------------9~~~~~~-8~~~~~~--------------------------|
|-6~~~~~~-7~~~~~~------------------------------------------|
|----------------------------------------------------------|
|----------------------------------------------------------|
|----------------------------------------------------------|
|----------------------------------------------------------|

|--------------------9---9-----------8---8---8---9---9---9---9-|
|-6h7p6h7p6h7p6h7p6h7-6h7-6h7p6h7p6h7-6h7-6h7-6h7-6h7-6h7-6h7--|
|--------------------------------------------------------------|
|--------------------------------------------------------------|
|--------------------------------------------------------------|
|--------------------------------------------------------------|

|------------8---8---8-------------------------------------|
|-6h7p6h7p6h7-6h7-6h7--------------------------------------|
|----------------------------------------------------------|
|----------------------------------------------------------|
|----------------------------------------------------------|
|----------------------------------------------------------|


Chorus (x1)


Outro:
|---------------------------------------------------------|
|---------------------------------------------------------|
|--333---------------333----------------------------------|
|--33333344-6664443--33333344-6664443---------------------| x2
|--11133344-6664443--11133344-6664443---------------------|
|-----11122-4442221-----11122-4442221---------------------|


thats all. this tab should be 99% correct except for a few possible
little mistakes. if you have any questions, comments, or corrections
my email address is Lisa1330@aol.com
Comments