Sugarcult - Crashing Down Chords & Tabs

 

Crashing Down Chords & Tabs

Sugarcult Chords & Tabs

Version: 5 Type: Tab 0 ratings
1 star 2 stars 3 stars 4 stars 5 stars
comments

Crashing Down Tab

   
Intro
e|------------------------------------------------------------------|
B|------------------------------------------------------------------|
G|-----7----------------------6~h7~-----7----------------------6~h7~|
D|---7---------9-------4/-----7~------7---------9-------4/-----7~---|
A|-5---------9-------5-5/---7~------5---------9-------5-5/---7~-----|
E|-------0-7-----0-3------5~--------------0-7-----0-3------5~-------|

riff 1
e|------------------------------------------------------------|
B|-------------3----------------3-----------------------------|
G|---------0--------0-------0-------0-------------------------|
D|-------4---4----4---4---4---4---4---4-----------------------|
A|--0--2----------------2-------------------------------------|
E|------------------------------------------------------------|

verse
e|---------------------------------------------------|
B|-----------------3---------------------------------|
G|------7-7--------4-------4--------6----------------|
D|----7---7------4-4-------5------6------------------|
A|--5--------0-2-----0---5------7--------------------|
E|---------------------3------5----------------------|


e|--------------------------------------------------------|
B|-----------------3-------------------3~--------x--------|
G|------7-7--------4-------4--------0--0~--------x--------|
D|----7---7------4-4-------5------4-4--4~--------x--------|
A|--5--------0-2-----0---5----0-2---2---------------------|
E|---------------------3----------------------------------|

verse 2
guitar 1 plays the verse riff
guitar 2 plays this:
e|-----------------------------------------------------|
B|-------10~-------------------------------------------|
G|-----9-------------12--------------------------------|
D|---7------------------10-10h12-10--------------------|
A|-----------------------------------------------------|
E|-----------------------------------------------------|

e|-0-0-0-0-00-0-0-0-0-00-0-0-0-0-00-0-0-0-0-00--------|
B|-5-5-5-5-55\3-3-3-3-33-5-5-5-5-55\3-3-3-3-33--------|
G|-7-7-7-7-77\5-5-5-5-55-7-7-7-7-77\5-5-5-5-55--------|
D|-0-0-0-0-00-0-0-0-0-00-0-0-0-0-00-0-0-0-0-00--------|
A|----------------------------------------------------|
E|----------------------------------------------------|

fill 1
e---------------|
B---------------|
G---------------|
D-x-x-x-x-------|
A-x-x-x-x-------|
E-x-x-x-x-------|

chorus (guitar 1):
D5      B5       G5    A5
we come crashing down, everytime
D5      B5       G5    A5   fill 1
we go this far again
D5      B5       G5    A5
we come tumbling down, everytime
D5      B5       G5    A5   fill 1
we go this far again
[ Tab from: http://www.guitartabs.cc/tabs/s/sugarcult/crashing_down_tab_ver_5.html ]
chorus guitar 2 - 2x:
e------------------------------------------------------------------------------|
B------------------------------------------------------------------------------|
G-7-7-7-77-4-4-4-44-------------------7-7-7-7-9-9-9-9-12-12-12-12-11-11-11-11--|
D-x-x-x-xx-x-x-x-xx-5-5-5-55-7-7-7-77-x-x-x-x-x-x-x-x--x--x--x--x--x--x--x--x--|
A-5-5-5-55-2-2-2-22-x-x-x-xx-x-x-x-xx-5-5-5-5-7-7-7-7-10-10-10-10--9--9--9--9--|
E-------------------3-3-3-33-5-5-5-55------------------------------------------|

guitar 1: riff 1
guitar 2 (at the end of riff 1):
e------------|
B------------|
G--11/12\11--|
D------------|
A---9/10\9---|
E------------|

repeat verse 2 (w/ different lyrics):

repeat fill 1:

repeat chorus

bridge
guitar 1 - 2x:
e----5-------------------------------------------------------|
B--7---5---5---8---8---5---5---------------------------------|
G--------7---7---7---7---7---7-------------------------------|
D------------------------------------------------------------|
A------------------------------------------------------------|
E------------------------------------------------------------|


guitar 2 (comes in on 2nd time):
e-------------------------------------------------------------------------|
B-------------------------------------------------------------------------|
G--7--6--7-----------------------7-7-7-7-9-9-9-9-12-12-12-12-11-11-11-11--|
D--------------------------------x-x-x-x-x-x-x-x--x--x--x--x--x--x--x--x--|
A--5--4--5-----------------------5-5-5-5-7-7-7-7-10-10-10-10--9--9--9--9--|
E-------------------------------------------------------------------------|

guitar 1 and 2 plays the chorus
guitar 3 Solo

Solo
e-----------------------------------------------------------|
B--7-10--5---5---8---8---5---5---7-10--5---5---8-10-12-10---|
G--7--7--7-7-7-7-7-7-7-7-7-7-7-7-7--7--7-7-7-7-7--9-11-11---|
D-----------------------------------------------------------|
A-----------------------------------------------------------|
E-----------------------------------------------------------|

outro chorus:
chorus
D5-BREAK B5       G5    A5
we come  crashing down, everytime
D5      B5       G5    A5   fill 1
we go this far again
D5      B5       G5    A5
we come tumbling down, everytime
D5      B5       G5    A#5   C5 fill 1
we go this far again
D5      B5       G5    A5
we come crashing down
D5      B5       G5    A5
we come tumbling down
D5      B5       G5    A5
we come crashing down, everytime
D5      B5       G5    A5   fill 1
we go this far again

riff 1 - 2x
Comments