Sugarcult - Champagne Chords & Tabs

 

Champagne Chords & Tabs

Sugarcult Chords & Tabs

Version: 2 Type: Tab 0 ratings
1 star 2 stars 3 stars 4 stars 5 stars
comments

Champagne Tab

Alrighty then i couldn't find the whole tab for this song so i'm just gonna do it myself!!

Song: Champagne                   (((((Perfected!)))))
By: Sugarcult
Album: Palm Trees And Powerlines
Tabbed By: Jamesknowsallmiller

Here we go...

Intro: 
|------------------------------------------------------------------------|
|------------------------------------------------------------------------|
|------------------------------------------------------------------------|
|---44444444--99999999------13-----11-----9------------------------------|
|---44444444--99999999--x3--13-x8--11-x8--9-x8---------------------------|
|---22222222--77777777------11-----9------7------------------------------|


Verse:
|------------------------------------------------------------------------|
|------------------------------------------------------------------------|
|------------------------------------------------------------------------|
|---44444444-99999999-44444444----13----11----44444444-99999999----13----|
|---44444444-99999999-44444444-x1-13-x4-11-x4-44444444-99999999-x1-13-x1-|
|---22222222-77777777-22222222----11----9-----22222222-77777777----11----|


Continued verse:
|------------------------------------------------------------------------|
|------------------------------------------------------------------------|
|------------------------------------------------------------------------|
|---11-----9-------------------------------------------------------------|
|---11-x1--9-x16---------------------------------------------------------|
|---9------7-------------------------------------------------------------|


Chorus:
|------------------------------------------------------------------------|
|------------------------------------------------------------------------|
|------------------------------------------------------------------------|
|---4-----11-----13-----9------------------------------------------------|
|---4-x8--11-x2--13-x5--9-x3---(Whole thing x4)--------------------------|
|---2-----9------11-----7------------------------------------------------|

Chorus part two, "Without you.."
|------------------------------------------------------------------------|
|------------------------------------------------------------------------|
|------------------------------------------------------------------------|
|---4------11-----13-----9-----------------------------------------------|
|---4-x4---11-x4--13-x4--9-x4---(Whole thing twice)----------------------|
|---2------9------11-----7-----------------------------------------------|
[ Tab from: http://www.guitartabs.cc/tabs/s/sugarcult/champagne_tab_ver_2.html ]
Solo (Guitar Strumming..main guitar solo at the very bottom):               
|------------------------------------------------------------------------|
|------------------------------------------------------------------------|
|------------------------------------------------------------------------|
|---4-----11-----2-----9-----11-----4-----11-----2-----9-----8-----------|
|---4-x8--11-x8--2-x8--9-x2--11-x2--4-x8--11-x8--2-x8--9-x2--8-x2--------|
|---2-----9------0-----7-----9------2-----9------0-----7-----6-----------|


The next part is just a choppy version of the intro, then when he says "Somebody help me.." it's:

|------------------------------------------------------------------------|
|------------------------------------------------------------------------|
|------------------------------------------------------------------------|
|---4-----11-----13------------------------------------------------------|
|---4-x2--11-x2--13-x8---(do that twice)---------------------------------|
|---2-----9------11------------------------------------------------------|

The after that it's:

|------------------------------------------------------------------------|
|------------------------------------------------------------------------|
|------------------------------------------------------------------------|
|---4-----11-----13-----9------------------------------------------------|
|---4-x4--11-x4--13-x4--9-x4--(Whole thing twice)------------------------|
|---2-----9------11-----7------------------------------------------------|

End on chorus:
|------------------------------------------------------------------------|
|------------------------------------------------------------------------|
|------------------------------------------------------------------------|
|--4-----11-----13-----9-------------------------------------------------|
|--2-x8--11-x8--13-x8--9-x8---(Do this 'till the song's over)------------|
|--2-----9------11-----7-------------------------------------------------|


Solo:
|------------------------------------------------------------------------|
|------------------------------------------------------------------------|
|----10--11---10---10--11--10---10--11--10--13--10--11--10---------------|
|--11--11---11---11--11--11---11--11--11--11--11--11---------------------|
|---------------------(Do it twice just like that)-----------------------|
|------------------------------------------------------------------------|

And Bvwalah! You've got yourself a tab...sorry if the x's are an inconvenience,
it was my first one, and im lazy. so if there's any questions email me at Jamiller5369@hotmail.com
or add me on msn at that same address.
Comments