Sugarcult - Bouncing Off The Walls Chords & Tabs

 

Bouncing Off The Walls Chords & Tabs

Sugarcult Chords & Tabs

Version: 9 Type: Tab 0 ratings
1 star 2 stars 3 stars 4 stars 5 stars
comments

Bouncing Off The Walls Tab

Sugarcult - Bouncing Off The Walls

Standard Tuning

Intro + Verse:
e--------------------|
b--------------------|
d-------6-6-4-4-4-44-|   and sometimes:
g--4-4--6-6-4-4-4-44-|
a--4-4--4-4-2-2-2-22-|
E--2-2---------------|


Chorus:
e------------------------------------------------------------------------|
b------------------------------------------------------------------------|
d--8-8-8-8-6-8-10-6---8-8-8-8-6-8-10-6---8-8-8-8-6-8-10-6---9-9--6-6-6-6-|
g--8-8-8-8-6-8-10-6---8-8-8-8-6-8-10-6---8-8-8-8-6-8-10-6---9-9--6-6-6-6-|
a--6-6-6-6-4-6-8--4---6-6-6-6-4-6-8--4---6-6-6-6-4-6-8--4---7-7--4-4-4-4-|
E------------------------------------------------------------------------|

[ Tab from: http://www.guitartabs.cc/tabs/s/sugarcult/bouncing_off_the_walls_tab_ver_9.html ]
Solo w/ wah
e-------------------------------------------------------------------------|
b---11-7--11-7--12-12-12-12-12-12-12-12-12-12-\-----7-11-7--14-14-14-14---|
g-------------------------------------------------------------------------|
d-------------------------------------------------------------------------|
a-------------------------------------------------------------------------|
E-------------------------------------------------------------------------|

e------------------------------------------------------------------------|
b---14-14-14-14-14-14-11-7--11-7---------------------------14-14-14-14---|
g---------------------------------10-11--13-11-10--10-\-6----------------|
d------------------------------------------------------------------------|
a------------------------------------------------------------------------|
E------------------------------------------------------------------------|

e-----------------------|
b---14-14-14-14-14-14---|
g-----------------------|
d-----------------------|
a-----------------------|
E-----------------------|

After solo play chorus again
Comments