Sugarcult - Bouncing Off The Walls Chords & Tabs

 

Bouncing Off The Walls Chords & Tabs

Sugarcult Chords & Tabs

Version: 3 Type: Tab 3 ratings
1 star 2 stars 3 stars 4 stars 5 stars
comments

Bouncing Off The Walls Tab

   
                                             Sugarcult - Bouncing Off The Walls




Hey everybody, I have been looking for this
song on the internet, and every tab I
tried sounded wrong, so I figured it out.
I am not sure how correct it is, since it
only took me one afternoon, but it is
closer than anything else that I have
found out there.
Regular Tuning.

P=Palm Muting (Until NP is given)
NP=No Plam Muting (Until P is given)
/=Slide
Options are different endings for sections/riffs

Any corrections that you find, please
e-mail me at RCCalvin@hotmail.com (Ryan Craig)

INTRO- (Light distortion)
                                               X2
e:----------------------------------------------|
B:----------------------------------------------|
G:---------6-6----4-4-4-4----------6-6---4-4-4-4|
D:---4-4---6-6----4-4-4-4---4-4----6-6---4-4-4-4|
A:---4-4---4-4----2-2-2-2---4-4----4-4---2-2-2-2|
E:---2-2--------------------2-2-----------------|
I'm bouncing off the walls again....



Part B- (Distortion)
                                                  X2                option 1
e:-------------------------------------------------|---9/1-----------------|
B:-------------------------------------------------|-----------------------|
G:----------6-6----4-4-4-4-----------6-6----4-4-4-4|-----------------------|
D:---4-4----6-6----4-4-4-4----4-4----6-6----4-4-4-4|------3/11-111111111111|
A:---4-4----4-4----2-2-2-2----4-4----4-4----2-2-2-2|-----------------------|
E:---2-2----------------------2-2------------------|-----------------------|



Part C- (Distortion)
                                                              X1  option 1   option 2   option 3
e:-------------------------------------------------------------|----------|----------|----------|
B:-------------------------------------------------------------|----------|----------|----------|
G:---8888--4-4----------8888--4-4----------8888--4-4-----------|----------|----------|---9------|
D:---8888--4-4-11-8-9-6-8888--4-4-11-8-9-6-8888--4-4-11-8-9-6-4|---6-6-6-6|---4-4-6-6|---9------|
A:---6666--2-2-11-8-9-6-6666--2-2-11-8-9-6-6666--4-4-11-8-9-6-4|---6-6-6-6|---4-4-6-6|---7------|
E:--------------9-6-7-4------------9-6-7-4------------9-6-7-4-2|---4-4-4-4|---2-2-4-4|----------|



Solo- (Distortion)
[ Tab from: http://www.guitartabs.cc/tabs/s/sugarcult/bouncing_off_the_walls_tab_ver_3.html ]
e:-----------------------------------------------------------------------------------|
B:-----------------------------------------------------------------------------------|
G:-----------------------------------------------------------------------------------|
D:---8-4-8-4-nine 9's--------4-8-4-nine 11's-----8-4-8-4-3-4-6-4-3---4-6-nine 11's---|
A:-----------------------------------------------------------------------------------|
E:-----------------------------------------------------------------------------------|

Alternate Solo Configuration

e:----------------------------------------------------------------------------------|
B:----------------------------------------------------------------------------------|
G:---3---3---nine 4's----------3---nine 6's------3---3-------------------nine 6's---|
D:-----4---4-----------------4---4-----------------4---4-3-4-6-4-3---4-6------------|
A:----------------------------------------------------------------------------------|
E:----------------------------------------------------------------------------------|


Part D1- (Distortion) (expanded)

e:------------------------------------------11--------------------|
B:-------4--------------------------------------------------------|
G:-----------3-------8--------------------------------------------|
D:---2------------------------------------------------------------|
A:----------------------------------------------------------------|
E:----------------------------------------------------------------|

Part D2 - (Distortion) (expanded)

e:-----------------------------------------------------------------------|
B:-----------------------------------------------------------------------|
G:-------------3-4-3---------------------NP3--4-------------------NP4---3|
D:-------------3-4-3---P3--3--3--3--3--3-NP3--4-P3--3--3--3--3--3-NP4---3|
A:-------------1-2-1---P3--3--3--3--3--3-NP1--2-P3--3--3--3--3--3-NP2---1|
E:---------------------P1--1--1--1--1--1--------P1--1--1--1--1--1--------|

Part F - (Distortion)
                                             X2
e:---------------------------------------------|
B:---------------------------------------------|
G:------------=-4-4---6-6-------------4-4---6-6|
D:---4-4-4-4----4-4---6-6---4-4-4-4---4-4---6-6|
A:---4-4-4-4----2-2---4-4---4-4-4-4---4-4---6-6|
E:---2-2-2-2----------------2-2-2-2------------|



ORDER

Intro
Part B
Part C w/ option 1
Part B w/ option 1
Part C w/ option 2
Solo
Part C w/ option 3
Parts D1 and D2
Part F
Part B to end
Comments