Sugarcult - Bouncing Off The Walls Chords & Tabs

 

Bouncing Off The Walls Chords & Tabs

Sugarcult Chords & Tabs

Version: 2 Type: Tab 0 ratings
1 star 2 stars 3 stars 4 stars 5 stars
comments

Bouncing Off The Walls Tab

   
Sugarcult- Bouncing off the Walls
e-mail me at el_canguro_atractivo@hotmail.com for corrections


key:
* = palm muted
h = hammer
~ = vibrate string

intro: clean

E|-----------------------------------------------------
B|-----------------------------------------------------
G|-----6-6-4-4-4-4-----6-6-4-4-4-4-----6-6-4-4-4-4-----
D|-4-4-6-6-4-4-4-4-4-4-6-6-4-4-4-4-4-4-6-6-4-4-4-4-----
A|-4-4-4-4-2-2-2-2-4-4-4-4-2-2-2-2-4-4-4-4-2-2-2-2-----
E|-2-2-------------2-2-------------2-2-----------------

E|-----------------------------------------------------
B|-----------------------------------------------------
G|-----6-6---------------------------------------------
D|-4-4-6-6---------------------------------------------
A|-4-4-4-4-*~~~pick scrape~~~*-------------------------
E|-2-2-------------------------------------------------


verse: distorted

E|-----------------------------------------------------
B|-----------------------------------------------------
G|-----6-6-4-4-4-4-----6-6-4-4-4-4-----6-6-4-4-4-4-----
D|-4-4-6-6-4-4-4-4-4-4-6-6-4-4-4-4-4-4-6-6-4-4-4-4-----
A|-4-4-4-4-2-2-2-2-4-4-4-4-2-2-2-2-4-4-4-4-2-2-2-2-----
E|-2-2-------------2-2-------------2-2-----------------

E|-----------------------------------------------------
B|-----------------------------------------------------
G|-----6-6-4-------------------------------------------
D|-4-4-6-6-4-------------------------------------------
A|-4-4-4-4-2-------------------------------------------
E|-2-2-------------------------------------------------


chorus1: distorted

E|-----------------------------------------------------
B|-----------------------------------------------------
G|---------------------------------------------6-6-6-6-
D|-4-----2-4-0-6-4---2-0-4/6-4----0-2-4/6-4----6-6-6-6-
A|------------------------------------------4--4-4-4-4-
E|-----------------------------------------------------


verse: play intro w/ distortion


chorus2: distorted

E|-----------------------------------------------------
B|-----------------------------------------------------
G|---------------------------------------------4-4-6-6-
D|-4-----2-4-0-6-4---2-0-4/6-4----0-2-4/6-4----4-4-6-6-
A|------------------------------------------4--2-2-4-4-
E|-----------------------------------------------------


interlude: distorted

E|-6---6---7~----6---9~--6---6-------7-------9~--------
B|---7---7-----7---7-------7---7-5-7---5~-7~-----------
G|-----------------------------------------------------
D|-----------------------------------------------------
A|-----------------------------------------------------
E|-----------------------------------------------------


solo: distorted (very good chance of being incorrect)

E|11h12-11h12-11h12-11h12-11h12-11h12-11h12-11h12------
B|-----------------------------------------------------
G|-----------------------------------------------------
D|-----------------------------------------------------
A|-----------------------------------------------------
E|-----------------------------------------------------

E|11h12--14^--14-12-11-----------12--------------------
B|---------------------15-12^-12----12-15-12-----------
G|-------------------------------------------12-14-12--
D|-----------------------------------------------------
A|-----------------------------------------------------
E|-----------------------------------------------------

E|-----------------------------------------------------
B|-----------------------------------------------------
G|10-12-10---------------------------------------------
D|---------12-14-12-10-12-10---------------------------
A|---------------------------12-14-12-10-12-10---------
E|---------------------------------------------12-14-12
[ Tab from: http://www.guitartabs.cc/tabs/s/sugarcult/bouncing_off_the_walls_tab_ver_2.html ]
E|-----------------------------------------------------
B|-----------------------------------------------------
G|-----------------------------------------------------
D|---------12^-----------------------------------------
A|-------------12^-12-10-8-10^-8~----------------------
E|10-12-10---------------------------------------------


second interlude: distorted

Guitar 1:
(hold)
E|----------------11------------------------11---------
B|-4----9------------9------------9--------------------
G|--------10-8-10------10-8-10------10-8-10------------
D|-----------------------------11----------------------
A|-----------------------------------------------------
E|-----------------------------------------------------

E|-----------------------------------------------------
B|-9---------------------------------------------------
G|---10-9----------------------------------------------
D|-----------------------------------------------------
A|--------*~~~pick slide~~~*---------------------------
E|-----------------------------------------------------


(during, guitar 2 plays what is below constantly)
E|-----------------------------------------------------
B|-----------------------------------------------------
G|-----------------------------------------------------
D|-2-2-2-----------------------------------------------
A|-2-2-2-----------------------------------------------
E|-0-0-0-----------------------------------------------
___* * *______________________________________________________

ending: distorted

Gutiar 1:
E|-----------------------------------------------------
B|-----------------------------------------------------
G|-----6-6-4-4-4-4-----6-6-4-4-4-4-----6-6-4-4-4-4-----
D|-4-4-6-6-4-4-4-4-4-4-6-6-4-4-4-4-4-4-6-6-4-4-4-4-----
A|-4-4-4-4-2-2-2-2-4-4-4-4-2-2-2-2-4-4-4-4-2-2-2-2-----
E|-2-2-------------2-2-------------2-2-----------------

Guitar 2:
E|-----------------------------------------11----------
B|-----------------------------------------------------
G|-------------------------4-4-4-4-8---10--------------
D|-------------------------X-X-X-X---------------------
A|-------------------------2-2-2-2---------------------
E|-----------------------------------------------------

__________________________________________________________

Gutiar 1:
E|-----------------------------------------------------
B|-----------------------------------------------------
G|-----6-6-4-4-4-4-------6-6---4-4-4-4-------6-6--4-4-4
D|-4-4-6-6-4-4-4-4---4-4-4-4---4-4-4-4--4-4--4-4--4-4-4
A|-4-4-4-4-2-2-2-2---4-4-4-4---2-2-2-2--4-4--4-4--2-2-2
E|-2-2---------------2-2----------------2-2------------

Guitar 2:
E|--------------------------14----------------14-------
B|---10--------------10--13----13-11-13-10-13----13-11-
G|-8---------------------------------------------------
D|-----------------------------------------------------
A|-----------------------------------------------------
E|-----------------------------------------------------

__________________________________________________________

Gutiar 1:
E|-----------------------------------------------------
B|-----------------------------------------------------
G|4-----6-----4-----------6-----4----------------------
D|4--4--4-----2--------4--4-----2----------------------
A|2--4--4-----2--------4--4-----2----------------------
E|---2-----------------2-------------------------------

Guitar 2:
E|---------14----------------14------------------------
B|13-10-13----13-11-13-10-13----13-11------------------
G|-----------------------------------------------------
D|-----------------------------------------------------
A|-----------------------------------------------------
E|-----------------------------------------------------

___________________________________________________________

E|-----------------------------------------------------
B|-----------------------------------------------------
G|-------6-6-4------------------------------------------
D|---4-4-6-6-4------------------------------------------
A|---4-4-4-4-2------------------------------------------
E|---2-2-----------------------------------------------
Comments