Sugarcult - Bouncing Off The Walls Again Chords & Tabs

 

Bouncing Off The Walls Again Chords & Tabs

Sugarcult Chords & Tabs

Version: 2 Type: Tab 0 ratings
1 star 2 stars 3 stars 4 stars 5 stars
comments

Bouncing Off The Walls Again Tab

This is a really easy song so you should be able to learn it pretty quickly.


Chorus, and intro

G------------------6-----6-----4---4----4----4--------------
D--- 4 ----4-------6----6----- 4---4----4----4--------------
A--- 4 ----4-------4----4------2---2----2----2--------------
E--- 2-----2---------------------------------------------------

Verse
[ Tab from: http://www.guitartabs.cc/tabs/s/sugarcult/bouncing_off_the_walls_again_tab_ver_2.html ]
D----9---------------------------------------------------------
A----9-------------------------7-7-7-7-------------------------
E----7-(repeat through verse)--5-5-5-5---(play at ending of verse)



interlude 1st part
E-------------0----0-------------------------------------
G---9----9------9----9---------------------------------- repeat 2
B-----8----8--------------------------------------------
D--------------------------------------------------------

interlude part 2

E-------------------------------------------------
G-------7-6-2------------------------------------repeat 4 
B-------------------------------------------------



That’s pretty much it. If you have any questions, email me at sweetsportz00@attbi.com. Thanks!
Comments