Sugarcult - Back To California Chords & Tabs

 

Back To California Chords & Tabs

Sugarcult Chords & Tabs

Version: 5 Type: Tab

Back To California Tab

Sounds right to me...


Intro/verse Guitar 1
e|---------------------------------------------------------------------|
B|---------------------------------------------------------------------|
G|-------------7--7--9--7----------------------------------------------|
D|---7---7-----7--7--9--7----------------------------------------------|x6
A|---4---7-----5--4--7--5-4--------------------------------------------|
D|---4---7--0----------------------------------------------------------|
     x8  x8   x4 x4 x4 x3

Bridge Guitar 1
e|----------------------------------------|
B|----------------------------------------|
G|---9---7---9---7------------------------|
D|---9---7---9---7------------------------|x1
A|---7---5---7---5------------------------|
D|----------------------------------------| 
Play each x16
[ Tab from: http://www.guitartabs.cc/tabs/s/sugarcult/back_to_california_tab_ver_5.html ]
Bridge Gutiar 2
e|----7-7--7-7--5-5--5-5--|
B|-----7----7----7----7---|
G|---9----9----7----7-----|
D|------------------------|x2
A|------------------------|
D|------------------------|

Then return to Guitar 1 verse until the chorus.

Chorus Guitar 1
e|---------------------------|
B|---------------------------|
G|-------------7--7--9--7----|
D|---7---7-----7--7--9--7----|x3
A|---7---7-----5--4--7--5-4--|
D|---7---6--0----------------|
    x8  x8    x4 x4 x4 x3

Chours Gutar 1
e|---------------------------------------------|
B|---------------------------------------------|
G|-------------7--9--11--13--------------------|
D|---7---7-----7--9--11--13--------------------|x1
A|---7---7-----5--7--9---11--7-7--7-7--7-7--7-7|
D|---7---6--0----------------6-6--6-6--6-6--6-6|
    x8  x8    x4 x4 x4  x4 
                            [do this last part only on 1st chorus]