Sugarcubes - Motorcrash Chords & Tabs

 

Motorcrash Chords & Tabs

Sugarcubes Chords & Tabs

Version: 1 Type: Tab 0 ratings
1 star 2 stars 3 stars 4 stars 5 stars
comments

Motorcrash Tab

   
"Motorcrash"
from the album "Life's Too Good"
by the Sugarcubes

Intro
---------------------E
---------------------B
---------------------G
---------------------D
-99-7-99-7-9-97-99-7-A
---------------------E

---3--6-4-G
-4--------D
----------A
----------E
(alt. intro bass/2nd guitar line)
[ Tab from: http://www.guitartabs.cc/tabs/s/sugarcubes/motorcrash_tab.html ]
Verse
--------------
----(7-7-7)---
----(8-8-8)---
-----7-7-7-7--
------9---9-9-
-7-7----------
(PM throughout, notes in parentheses played second time only)

Chorus
----5-D
------A
-555--E

Bridge: F#(IX), E(VII), D(V), C#(IV)
(use barre form chords)

Johnathon Venable
drownsoda79@hotmail.com
Comments