Sugarcoma - You Drive Me Crazy Chords & Tabs

 

You Drive Me Crazy Chords & Tabs

Sugarcoma Chords & Tabs

Version: 3 Type: Tab 0 ratings
1 star 2 stars 3 stars 4 stars 5 stars
comments

You Drive Me Crazy Tab

   
Artist - SugarComa
Album - Becoming Something Else
Track Name - (You Drive Me) Crazy
Tabber - Keith Fusco
Email Address - keith_fusco_the_offspring_fan@yahoo.co.uk

This Took Me About An Hour And A Half Or So To Tab So Please Email Your Comments Or Any Corrections, Or If 
Think Any Of The Lyrics Are Wrong, Or If You Want To Request A Tab Email Me And I'll Try My Best To Tab 
And Email It To You As Sonn As Possible.

Notes - The Mutes On The Intro Are Optional Because That Is Just The Drum Line, But I Put In Some Mutes To 
With The Drum Line To Keep My Rythmn.

Legend:

p - Pull Off
pm - Palm Muted
* - Let Ring
\ - Slide Down Neck
/ - Slide Up neck
x - Mute

Standard Tuning (E,A,D,G,B,E)

Intro

E |-------------------------------|
B |-------------------------------|
G |-------------------------------|
D |-10-10-\-5-5-/-6-6-x-x-x-x-x-x-|
A |-10-10-\-5-5-/-6-6-x-x-x-x-x-x-|
E |--8--8-\-3-3-/-4-4-x-x-x-x-x-x-|

E |--------------------------------------------|
B |--------------------------------------------|
G |--------------------------------------------|
D |-10-10-\-5-5-/-6-6*-6-\-5-5-5-\-10*-10-10-p-|
A |-10-10-\-5-5-/-6-6--6-\-5-5-5-\-10--10-10-p-|
E |--8--8-\-3-3-/-4-4--4-\-3-3-3-\--8---8--8-p-|

E |--------------------------------------------|
B |--------------------------------------------|
G |--------------------------------------------|
D |-10-10-\-5-5-/-6-6*-6-\-5-5-5-\-10*-10-10-p-|
A |-10-10-\-5-5-/-6-6--6-\-5-5-5-\-10--10-10-p-|
E |--8--8-\-3-3-/-4-4--4-\-3-3-3-\--8---8--8-p-|

Verse (Palm Muted)

E |--------------------------------------------|
B |--------------------------------------------|
G |--------------------------------------------|
D |-10-10-\-5-5-/-6-6*-6-\-5-5-5-\-10*-10-10-p-|
A |-10-10-\-5-5-/-6-6--6-\-5-5-5-\-10--10-10-p-|
E |--8--8-\-3-3-/-4-4--4-\-3-3-3-\--8---8--8-p-|

E |--------------------------------------------|
B |--------------------------------------------|
G |--------------------------------------------|
D |-10-10-\-5-5-/-6-6*-6-\-5-5-5-\-10*-10-10-p-|
A |-10-10-\-5-5-/-6-6--6-\-5-5-5-\-10--10-10-p-|
E |--8--8-\-3-3-/-4-4--4-\-3-3-3-\--8---8--8-p-|

E |--------------------------------------------|
B |--------------------------------------------|
G |--------------------------------------------|
D |-10-10-\-5-5-/-6-6*-6-\-5-5-5-\-10*-10-10-p-|
A |-10-10-\-5-5-/-6-6--6-\-5-5-5-\-10--10-10-p-|
E |--8--8-\-3-3-/-4-4--4-\-3-3-3-\--8---8--8-p-|

E |--------------------------------------|
B |--------------------------------------|
G |--------------------------------------|
D |-10-10-\-5-5-/-6-6*-6-\-5-5-5-\-10*-\-|
A |-10-10-\-5-5-/-6-6--6-\-5-5-5-\-10--\-|
E |--8--8-\-3-3-/-4-4--4-\-3-3-3-\--8--\-|

Bridge (Play Palm Mutes Very Fast)

E |-------------------------------------------------------------------|
B |-------------------------------------------------------------------|
G |-------------------------------------------------------------------|
D |-3-3-3-3-3-3-3-3-3-/-5-5-5-5-5-5-5-5-5-/-6-6-6-6-6-6-6-6-\-5-5-5---|
A |-3-3-3-3-3-3-3-3-3-/-5-5-5-5-5-5-5-5-5-/-6-6-6-6-6-6-6-6-\-5-5-5---|
E |-1-1-1-1-1-1-1-1-1-/-3-3-3-3-3-3-3-3-3-/-4-4-4-4-4-4-4-4-\-3-3-3---|
     |-----pm------|     |-----pm------|     |-----pm----|     |pm----|

E |-------------|
B |-------------|
G |-------------|
D |-5-5-5-5-5-/-|
A |-5-5-5-5-5-/-|
E |-3-3-3-3-3-/-|
   |--pm---|

Chorus

E |--------------------------------------------|
B |--------------------------------------------|
G |--------------------------------------------|
D |-10-10-\-5-5-/-6-6*-6-\-5-5-5-\-10*-10-10-p-|
A |-10-10-\-5-5-/-6-6--6-\-5-5-5-\-10--10-10-p-|
E |--8--8-\-3-3-/-4-4--4-\-3-3-3-\--8---8--8-p-|

E |--------------------------------------------|
B |--------------------------------------------|
G |--------------------------------------------|
D |-10-10-\-5-5-/-6-6*-6-\-5-5-5-\-10*-10-10-p-|
A |-10-10-\-5-5-/-6-6--6-\-5-5-5-\-10--10-10-p-|
E |--8--8-\-3-3-/-4-4--4-\-3-3-3-\--8---8--8-p-|

E |--------------------------------------------|
B |--------------------------------------------|
G |--------------------------------------------|
D |-10-10-\-5-5-/-6-6*-6-\-8-8-8-\-13*-13-13-p-|
A |-10-10-\-5-5-/-6-6--6-\-8-8-8-\-13--13-13-p-|
E |--8--8-\-3-3-/-4-4--4-\-6-6-6-\-11--11-11-p-|

E |--------------------------------------------|
B |--------------------------------------------|
G |--------------------------------------------|
D |-10-10-\-5-5-/-6-6*-6-\-5-5-5-\-10*-10-10-p-|
A |-10-10-\-5-5-/-6-6--6-\-5-5-5-\-10--10-10-p-|
E |--8--8-\-3-3-/-4-4--4-\-3-3-3-\--8---8--8-p-|

Verse (Palm Muted)

E |--------------------------------------------|
B |--------------------------------------------|
G |--------------------------------------------|
D |-10-10-\-5-5-/-6-6*-6-\-5-5-5-\-10*-10-10-p-|
A |-10-10-\-5-5-/-6-6--6-\-5-5-5-\-10--10-10-p-|
E |--8--8-\-3-3-/-4-4--4-\-3-3-3-\--8---8--8-p-|

E |--------------------------------------------|
B |--------------------------------------------|
G |--------------------------------------------|
D |-10-10-\-5-5-/-6-6*-6-\-5-5-5-\-10*-10-10-p-|
A |-10-10-\-5-5-/-6-6--6-\-5-5-5-\-10--10-10-p-|
E |--8--8-\-3-3-/-4-4--4-\-3-3-3-\--8---8--8-p-|

E |--------------------------------------------|
B |--------------------------------------------|
G |--------------------------------------------|
D |-10-10-\-5-5-/-6-6*-6-\-5-5-5-\-10*-10-10-p-|
A |-10-10-\-5-5-/-6-6--6-\-5-5-5-\-10--10-10-p-|
E |--8--8-\-3-3-/-4-4--4-\-3-3-3-\--8---8--8-p-|

E |--------------------------------------|
B |--------------------------------------|
G |--------------------------------------|
D |-10-10-\-5-5-/-6-6*-6-\-5-5-5-\-10*-\-|
A |-10-10-\-5-5-/-6-6--6-\-5-5-5-\-10--\-|
E |--8--8-\-3-3-/-4-4--4-\-3-3-3-\--8--\-|

Bridge (Play Palm Mutes Very Fast)
[ Tab from: http://www.guitartabs.cc/tabs/s/sugarcoma/you_drive_me_crazy_tab_ver_3.html ]
E |-------------------------------------------------------------------|
B |-------------------------------------------------------------------|
G |-------------------------------------------------------------------|
D |-3-3-3-3-3-3-3-3-3-/-5-5-5-5-5-5-5-5-5-/-6-6-6-6-6-6-6-6-\-5-5-5---|
A |-3-3-3-3-3-3-3-3-3-/-5-5-5-5-5-5-5-5-5-/-6-6-6-6-6-6-6-6-\-5-5-5---|
E |-1-1-1-1-1-1-1-1-1-/-3-3-3-3-3-3-3-3-3-/-4-4-4-4-4-4-4-4-\-3-3-3---|
     |-----pm------|     |-----pm------|     |-----pm----|     |pm----|

E |-------------|
B |-------------|
G |-------------|
D |-5-5-5-5-5-/-|
A |-5-5-5-5-5-/-|
E |-3-3-3-3-3-/-|
   |--pm---|

Chorus

E |--------------------------------------------|
B |--------------------------------------------|
G |--------------------------------------------|
D |-10-10-\-5-5-/-6-6*-6-\-5-5-5-\-10*-10-10-p-|
A |-10-10-\-5-5-/-6-6--6-\-5-5-5-\-10--10-10-p-|
E |--8--8-\-3-3-/-4-4--4-\-3-3-3-\--8---8--8-p-|

E |--------------------------------------------|
B |--------------------------------------------|
G |--------------------------------------------|
D |-10-10-\-5-5-/-6-6*-6-\-5-5-5-\-10*-10-10-p-|
A |-10-10-\-5-5-/-6-6--6-\-5-5-5-\-10--10-10-p-|
E |--8--8-\-3-3-/-4-4--4-\-3-3-3-\--8---8--8-p-|

E |--------------------------------------------|
B |--------------------------------------------|
G |--------------------------------------------|
D |-10-10-\-5-5-/-6-6*-6-\-8-8-8-\-13*-13-13-p-|
A |-10-10-\-5-5-/-6-6--6-\-8-8-8-\-13--13-13-p-|
E |--8--8-\-3-3-/-4-4--4-\-6-6-6-\-11--11-11-p-|

E |--------------------------------------------|
B |--------------------------------------------|
G |--------------------------------------------|
D |-10-10-\-5-5-/-6-6*-6-\-5-5-5-\-10*-10-10-p-|
A |-10-10-\-5-5-/-6-6--6-\-5-5-5-\-10--10-10-p-|
E |--8--8-\-3-3-/-4-4--4-\-3-3-3-\--8---8--8-p-|

Solo

E |---------------------------------------------------------------|
B |---------------------------------------------------------------|
G |---------------------------------------------------------------|
D |-13-10*-10-12-12-10-10-8----13-13-10-13-10*-9-10-12-10*-13-10*-|
A |-------------------------10------------------------------------|
E |---------------------------------------------------------------|

E |--------------------------------------------|
B |--------------------------------------------|
G |--------------------------------------------|
D |-10-12-12-10-13*-13-13-10-13-10*-9-10-12-10-|
A |--------------------------------------------|
E |--------------------------------------------|

Bridge (Play Palm Mutes Very Fast)

E |-------------------------------------------------------------------|
B |-------------------------------------------------------------------|
G |-------------------------------------------------------------------|
D |-3-3-3-3-3-3-3-3-3-/-5-5-5-5-5-5-5-5-5-/-6-6-6-6-6-6-6-6-\-5-5-5---|
A |-3-3-3-3-3-3-3-3-3-/-5-5-5-5-5-5-5-5-5-/-6-6-6-6-6-6-6-6-\-5-5-5---|
E |-1-1-1-1-1-1-1-1-1-/-3-3-3-3-3-3-3-3-3-/-4-4-4-4-4-4-4-4-\-3-3-3---|
     |-----pm------|     |-----pm------|     |-----pm----|     |pm----|

E |-------------|
B |-------------|
G |-------------|
D |-5-5-5-5-5-/-|
A |-5-5-5-5-5-/-|
E |-3-3-3-3-3-/-|
   |--pm---|

Chorus

E |--------------------------------------------|
B |--------------------------------------------|
G |--------------------------------------------|
D |-10-10-\-5-5-/-6-6*-6-\-5-5-5-\-10*-10-10-p-|
A |-10-10-\-5-5-/-6-6--6-\-5-5-5-\-10--10-10-p-|
E |--8--8-\-3-3-/-4-4--4-\-3-3-3-\--8---8--8-p-|

E |--------------------------------------------|
B |--------------------------------------------|
G |--------------------------------------------|
D |-10-10-\-5-5-/-6-6*-6-\-5-5-5-\-10*-10-10-p-|
A |-10-10-\-5-5-/-6-6--6-\-5-5-5-\-10--10-10-p-|
E |--8--8-\-3-3-/-4-4--4-\-3-3-3-\--8---8--8-p-|

E |--------------------------------------------|
B |--------------------------------------------|
G |--------------------------------------------|
D |-10-10-\-5-5-/-6-6*-6-\-8-8-8-\-13*-13-13-p-|
A |-10-10-\-5-5-/-6-6--6-\-8-8-8-\-13--13-13-p-|
E |--8--8-\-3-3-/-4-4--4-\-6-6-6-\-11--11-11-p-|

E |--------------------------------------------|
B |--------------------------------------------|
G |--------------------------------------------|
D |-10-10-\-5-5-/-6-6*-6-\-5-5-5-\-10*-10-10-p-|
A |-10-10-\-5-5-/-6-6--6-\-5-5-5-\-10--10-10-p-|
E |--8--8-\-3-3-/-4-4--4-\-3-3-3-\--8---8--8-p-|

E |--------------------------------------------|
B |--------------------------------------------|
G |--------------------------------------------|
D |-10-10-\-5-5-/-6-6*-6-\-5-5-5-\-10*-10-10-p-|
A |-10-10-\-5-5-/-6-6--6-\-5-5-5-\-10--10-10-p-|
E |--8--8-\-3-3-/-4-4--4-\-3-3-3-\--8---8--8-p-|

E |--------------------------------------------|
B |--------------------------------------------|
G |--------------------------------------------|
D |-10-10-\-5-5-/-6-6*-6-\-5-5-5-\-10*-10-10-p-|
A |-10-10-\-5-5-/-6-6--6-\-5-5-5-\-10--10-10-p-|
E |--8--8-\-3-3-/-4-4--4-\-3-3-3-\--8---8--8-p-|

E |--------------------------------------------|
B |--------------------------------------------|
G |--------------------------------------------|
D |-10-10-\-5-5-/-6-6*-6-\-8-8-8-\-13*-13-13-p-|
A |-10-10-\-5-5-/-6-6--6-\-8-8-8-\-13--13-13-p-|
E |--8--8-\-3-3-/-4-4--4-\-6-6-6-\-11--11-11-p-|

E |--------------------------------------------|
B |--------------------------------------------|
G |--------------------------------------------|
D |-10-10-\-5-5-/-6-6*-6-\-5-5-5-\-10*-10-10-*-|
A |-10-10-\-5-5-/-6-6--6-\-5-5-5-\-10--10-10-*-|
E |--8--8-\-3-3-/-4-4--4-\-3-3-3-\--8---8--8-*-|

Lyrics

Baby, I'm So Into You
You Got That Something What Can I Do
Baby, You Spin Me Around
The Earth Is Moving, But I Can't Feel The Ground

Everytime You Look At Me
The Earth Is Moving It's Easy To see

You Drive Me Crazy
I Just Can't Sleep
I'm So Excited I'm In Too Deep
Crazy, But It Feels All Right
Baby Keep It Up, It Keeps Me Up All Night

Tell Me, That You're So Into Me
That I'm The Only One You Will See
Tell Me, I'm Not In The Blue
And I'm Not Wasting My Feelings On You

Everytime I Look At You
My Heart Is Jumping, What Can I Do?

You Drive Me Crazy
I Just Can't Sleep
I'm So Excited I'm In Too Deep
Crazy, But It Feels All Right
Baby Keep It Up, It Keeps Me Up All Night

Everytime You Look At Me
The Earth Is Moving It's Easy To see

You Drive Me Crazy
I Just Can't Sleep
I'm So Excited I'm In Too Deep
Crazy, But It Feels All Right
Baby Keep It Up, It Keeps Me Up All Night

Crazy !!!
Crazy !!!
Crazy !!!
Crazy !!!
Comments