Sugar Ray - Someday Chords & Tabs

 

Someday Chords & Tabs

Sugar Ray Chords & Tabs

Version: 3 Type: Bass Tab 0 ratings
1 star 2 stars 3 stars 4 stars 5 stars
comments

Someday Bass Tab

Sugar Ray-someday bass tab
Tabbed by Dave Wachala
csoul@mail.com

Verse,Prechorus
---------------------
---------------------
------4-2-------0-2--
-0--0-----2---2------


Chorus:
        3 times             1 time
----------------------I--------------------I
----------------------I--------------------I
----------------------I---------------4--2-I
-5--5-5--5--4--4-4--4-I-2--2-2--2-0-0------I

[ Tab from: http://www.guitartabs.cc/tabs/s/sugar_ray/someday_btab_ver_3.html ]
second chorus:
        3 times             1 time
----------------------I-----------------------------------I
----------------------I-----------99-77-66-44-99-77-66-44-I
----------------------I-----------------------------------I
-5--5-5--5--4--4-4--4-I-2--2-2--2-------------------------I

Bridge:
         2 times
--------------------------------------------I
-----------------------7--7-7---7--7-7-9--7-I
-7--7-7---7--7-7-9--7-----------------------I
--------------------------------------------I

wait for guitar riff twice
10 Verse riffs
1 chorus
10 verse riffs
1 second chorus riff
Stop for two guitar riffs
2 Bridge riffs
18 verses
Comments