Sugar Ray - Falls Apart Chords & Tabs

 

Falls Apart Chords & Tabs

Sugar Ray Chords & Tabs

Version: 3 Type: Bass Tab 0 ratings
1 star 2 stars 3 stars 4 stars 5 stars
comments

Falls Apart Bass Tab

-------------------------------------------------------------------------------
			     FALLS APART - Sugar Ray
-------------------------------------------------------------------------------

By: Ryan Brown aka BassJerk
This tab was done by me. Its the second verson of it. I fixed the slide
and a few other things. This is almost the whole song for bass, but it is also the intro, 
it plays throughout the song, and sounds good. 
ENJOY!


[ Tab from: http://www.guitartabs.cc/tabs/s/sugar_ray/falls_apart_btab_ver_3.html ]
G|------------------------------------------------------------------|
D|---3-3---3-3\5/3--3-3---3-3\5/3---3-3---3-3\5/3--3-3-3-3/\2-------|
A|-------5--------------5---------------5---------------------------|
E|------------------------------------------------------------------|

G|------------------------------------------------------------------|
D|---3-3---3-3\5/3----3-3---3-3\5/3-----3-3---3-3\5/3----3-3-3-3/\2-|
A|-------5---------5------5---------5-------5---------5-------------|
E|------------------------------------------------------------------|
Comments