Sugar Ray - Every Morning Chords & Tabs

 

Every Morning Chords & Tabs

Sugar Ray Chords & Tabs

Version: 9 Type: Tab 0 ratings
1 star 2 stars 3 stars 4 stars 5 stars
comments

Every Morning Tab

   
Tune guitar 1/2 step down (Eb,Ab,Db,Gb,Bb,Eb)



Intro (J.T.)

(played with acoustic guitar)

Eb--------------------------------------------------------------------|
Bb----/-/--5-5-7-5-7-5----5-5-5-5-5----------5-5-5-5--5h7--5----------|
Gb----/-/--6-6-6-6-6-6----7---7---7---6-7-6--6-6-6-6----6----7-6------|  (play it twice)
Db------------------------0---0---0-------0--6-6-6-6------------------|
Ab--------------------------------------------------------------------|
Eb--------------------------------------------------------------------|

(second guitar)

Eb---0-0---0--2--2-2-2-2--0-0----0-0---0--2--2-2-2-2--0-0----|
Bb---2-2---0--3--3-3-3-3--0-0----2-2---0--3--3-3-3-3--0-0----|
Gb---2-2---1--2--2-2-2-2--1-1----2-2---1--2--2-2-2-2--1-1----|  (play it the second time)
Db---2-2---2--0--0-0-0-0--2-2----2-2---2--0--0-0-0-0--2-2----|
Ab---0-0---2--------------2-2----0-0---2--------------2-2----|
Eb---------0--------------0-0----------0--------------0-0----|


Verse


   Every morning there`s a halo....
Eb---5-5---7--5--5-5-5-5--7-7------------------------------------|
Bb---5-5---9--7--7-7-7-7--9-9------------------------------------|
Gb---6-6---9--7--7-7-7-7--9-9------------------------------------|  (play it 4 times)
Db---7-7---9--7--7-7-7-7--9-9------------------------------------|
Ab---7-7---7--5--5-5-5-5--7-7------------------------------------|
Eb---5-5---------------------------------------------------------|


(second guitar)

Eb---0-0---0--2--2-2-2-2--0-0------------------------------------|
Bb---2-2---0--3--3-3-3-3--0-0------------------------------------|
Gb---2-2---1--2--2-2-2-2--1-1------------------------------------|  (play it 4 times)
Db---2-2---2--0--0-0-0-0--2-2------------------------------------|
Ab---0-0---2--------------2-2------------------------------------|
Eb---------0--------------0-0------------------------------------|



 Couldn`t understand....
Eb---------12---12--11--10---10--11---------------------|
Bb----------9----9---8---7----7---8---------------------|
Gb----------9----9---8---7----7---8---------------------|  (play it 3 times)
Db------------------------------------------------------|
Ab------------------------------------------------------|
Eb------------------------------------------------------|

  ....and you ripped it out.
Eb--------------------12---12--11--10----------|
Bb---------------------9----9---8---7----------|
Gb---------------------9----9---8---7----------|  
Db---------------------------------------------|
Ab---------------------------------------------|
Eb---------------------------------------------|


  Something`s got me reeling....
Eb---5-5---7--5--5-5-5-5--7-7------------------------------------|
Bb---5-5---9--7--7-7-7-7--9-9------------------------------------|
Gb---6-6---9--7--7-7-7-7--9-9------------------------------------|  (play it 4 times)
Db---7-7---9--7--7-7-7-7--9-9------------------------------------|
Ab---7-7---7--5--5-5-5-5--7-7------------------------------------|
Eb---5-5---------------------------------------------------------|

(second guitar)

Eb---0-0---0--2--2-2-2-2--0-0------------------------------------|
Bb---2-2---0--3--3-3-3-3--0-0------------------------------------|
Gb---2-2---1--2--2-2-2-2--1-1------------------------------------|  (play it 4 times)
Db---2-2---2--0--0-0-0-0--2-2------------------------------------|
Ab---0-0---2--------------2-2------------------------------------|
Eb---------0--------------0-0------------------------------------|


Fill 1 (At the end)

Eb------------------------------------|
Bb------5-5-5-5---5h7--5--------------|
Gb------6-6-6-6---6------7-6----------| 
Db------------------------------------|
Ab------------------------------------|
Eb------------------------------------|



Chorus 



 Ahhhhh,Ahhhhhhh Every morning....
Eb---5-5---7--5--5-5-5-5--7-7---5---------------------------------|
Bb---5-5---9--7--7-7-7-7--9-9---5----5-5-5-5---5h7--5-------------|
Gb---6-6---9--7--7-7-7-7--9-9---6----6-6-6-6---6------7-6---------|  (play it 2 times)
Db---7-7---9--7--7-7-7-7--9-9---7---------------------------------|
Ab---7-7---7--5--5-5-5-5--7-7---7---------------------------------|
Eb---5-5------------------------5---------------------------------|

(second guitar)

Eb---0-0---0--2--2-2-2-2--0-0---0-0---0--2--2-2-2-2--0-0--------------|
Bb---2-2---0--3--3-3-3-3--0-0---2-2---0--3--3-3-3-3--0-0--------------|
Gb---2-2---1--2--2-2-2-2--1-1---2-2---1--2--2-2-2-2--1-1--------------|  (play it 2 times)
Db---2-2---2--0--0-0-0-0--2-2---2-2---2--0--0-0-0-0--2-2--------------|
Ab---0-0---2--------------2-2---0-0---2--------------2-2--------------|
Eb---------0--------------0-0---------0--------------0-0--------------|




(Play intro again)

Eb--------------------------------------------------------------------|
Bb----/-/--5-5-7-5-7-5----5-5-5-5-5----------5-5-5-5--5h7--5----------|
Gb----/-/--6-6-6-6-6-6----7---7---7---6-7-6--6-6-6-6----6----7-6------| 
Db------------------------0---0---0-------0--6-6-6-6------------------|
Ab--------------------------------------------------------------------|
Eb--------------------------------------------------------------------|

(second guitar)
[ Tab from: http://www.guitartabs.cc/tabs/s/sugar_ray/every_morning_tab_ver_9.html ]
Eb---0-0---0--2--2-2-2-2--0-0----0----2---0-----------------|
Bb---2-2---0--3--3-3-3-3--0-0----2----3---0-----------------|
Gb---2-2---1--2--2-2-2-2--1-1----2----2---1-----------------|  
Db---2-2---2--0--0-0-0-0--2-2----2----0---2-----------------|
Ab---0-0---2--------------2-2----0--------2-----------------|
Eb---------0--------------0-0-------------0-----------------|



Verse


   Every morning there`s a heartache....
Eb---5-5---7--5--5-5-5-5--7-7------------------------------------|
Bb---5-5---9--7--7-7-7-7--9-9------------------------------------|
Gb---6-6---9--7--7-7-7-7--9-9------------------------------------|  (play it 4 times)
Db---7-7---9--7--7-7-7-7--9-9------------------------------------|
Ab---7-7---7--5--5-5-5-5--7-7------------------------------------|
Eb---5-5---------------------------------------------------------|


(second guitar)

Eb---0-0---0--2--2-2-2-2--0-0------------------------------------|
Bb---2-2---0--3--3-3-3-3--0-0------------------------------------|
Gb---2-2---1--2--2-2-2-2--1-1------------------------------------|  (play it 4 times)
Db---2-2---2--0--0-0-0-0--2-2------------------------------------|
Ab---0-0---2--------------2-2------------------------------------|
Eb---------0--------------0-0------------------------------------|



Fill 2 (play it at the end)

Eb---------12---12--11--10---10--11---12---12--11--10-----------|
Bb----------9----9---8---7----7---8----9----9---8---7-----------|
Gb----------9----9---8---7----7---8----9----9---8---7-----------|
Db--------------------------------------------------------------|
Ab--------------------------------------------------------------|
Eb--------------------------------------------------------------|

 
 Something`s so decieving....
Eb---5-5---7--5--5-5-5-5--7-7------------------------------------|
Bb---5-5---9--7--7-7-7-7--9-9------------------------------------|
Gb---6-6---9--7--7-7-7-7--9-9------------------------------------|  (play it 4 times)
Db---7-7---9--7--7-7-7-7--9-9------------------------------------|
Ab---7-7---7--5--5-5-5-5--7-7------------------------------------|
Eb---5-5---------------------------------------------------------|

(second guitar)

Eb---0-0---0--2--2-2-2-2--0-0------------------------------------|
Bb---2-2---0--3--3-3-3-3--0-0------------------------------------|
Gb---2-2---1--2--2-2-2-2--1-1------------------------------------|  (play it 4 times)
Db---2-2---2--0--0-0-0-0--2-2------------------------------------|
Ab---0-0---2--------------2-2------------------------------------|
Eb---------0--------------0-0------------------------------------|



Fill 1 (At the end)





Chorus




Bridge

  She always rights the wrong....
Eb-------------------------------------------------------------------------------|
Bb-------------------------------------------------------------------------------|
Gb---7-7-7-7-7-7-7-7---9-9-9-9-9-9-9-9-------------------------------------------|  
Db---7-7-7-7-7-7-7-7---9-9-9-9-9-9-9-9---7-7-7-7-7-7-7-7---4-4-4-4-4-4-4-4-------|
Ab---5-5-5-5-5-5-5-5---7-7-7-7-7-7-7-7---7-7-7-7-7-7-7-7---4-4-4-4-4-4-4-4-------|
Eb---------------------------------------5-5-5-5-5-5-5-5---2-2-2-2-2-2-2-2-------|
     ^^^^^^PM^^^^^^^   ^^^^^^PM^^^^^^^   ^^^^^^PM^^^^^^^   ^^^^^^PM^^^^^^^

  She always rights the wrong....
Eb-----------------------------------------------------|
Bb-----------------------------------------------------|
Gb---7-7-7-7-7-7-7-7---9-9-9-9-9-9-9-9-----------------|  
Db---7-7-7-7-7-7-7-7---9-9-9-9-9-9-9-9-----------------|
Ab---5-5-5-5-5-5-5-5---7-7-7-7-7-7-7-7-----------------|
Eb-----------------------------------------------------|
     ^^^^^^PM^^^^^^^   ^^^^^^PM^^^^^^^



   Every morning there`s a halo....
Eb---5-5---7--5--5-5-5-5--7-7------------------------------------|
Bb---5-5---9--7--7-7-7-7--9-9------------------------------------|
Gb---6-6---9--7--7-7-7-7--9-9------------------------------------|  (play it 4 times)
Db---7-7---9--7--7-7-7-7--9-9------------------------------------|
Ab---7-7---7--5--5-5-5-5--7-7------------------------------------|
Eb---5-5---------------------------------------------------------|


(second guitar)

Eb---0-0---0--2--2-2-2-2--0-0------------------------------------|
Bb---2-2---0--3--3-3-3-3--0-0------------------------------------|
Gb---2-2---1--2--2-2-2-2--1-1------------------------------------|  (play it 4 times)
Db---2-2---2--0--0-0-0-0--2-2------------------------------------|
Ab---0-0---2--------------2-2------------------------------------|
Eb---------0--------------0-0------------------------------------|




Fill 2 (play it 4 times)



 Every morning....
Eb---5-5---7--5--5-5-5-5--7-7---------------------------------|
Bb---5-5---9--7--7-7-7-7--9-9---------------------------------|
Gb---6-6---9--7--7-7-7-7--9-9---------------------------------|  (play it until the end)
Db---7-7---9--7--7-7-7-7--9-9---------------------------------|    
Ab---7-7---7--5--5-5-5-5--7-7---------------------------------|
Eb---5-5------------------------------------------------------|

(second guitar)

Eb---0-0---0--2--2-2-2-2--0-0---------------------------------|
Bb---2-2---0--3--3-3-3-3--0-0---------------------------------|
Gb---2-2---1--2--2-2-2-2--1-1---------------------------------|  (play it until the end)
Db---2-2---2--0--0-0-0-0--2-2---------------------------------|
Ab---0-0---2--------------2-2---------------------------------|
Eb---------0--------------0-0---------------------------------|




Notation:

^PM^ = palm muting
/    = slide
h    = hammer on
Comments