Sugar Ray - Every Morning Chords & Tabs

 

Every Morning Chords & Tabs

Sugar Ray Chords & Tabs

Version: 2 Type: Tab 1 rating
1 star 2 stars 3 stars 4 stars 5 stars
comments

Every Morning Tab

Artist: Sugar Ray
Song: Every morning
Tuning: half step down
Transcribed by: Bruno Calatroni
Email: WeezerSP00@aol.com

Parentheses mean that the note is optional.

Intro: play with upstrokes

E----------------------------------------------------------------------
B---3/5-5---7--5--7--5-----3--5--3--5--3-----2--3--2------/5--5--5--5--
G---2/4-4---6--4--6--4-----2--4--2--4--2-----1--2--1---2--/4--4--4--4--
D------------------------------------------------------2---------------
A----------------------------------------------------------------------
E----------------------------------------------------------------------

E-----------------------------------
B--5/7~~----5p3---2~~~--------------
G-----------------------------------
D-----------------------------------
A-----------------------------------
E-----------------------------------

Heres the rhythm guitar which is the main riff throughout the song

E---0--0--0--0--0----4--2----2--2--2--2-----4--4--------------
B---2--2--2--2--2----5--3----3--3--3--3-----5--5-------------
G---2--2--2--2--2----4--2----2--2--2--2-----4--4-------------
D---2--2--2--2--2----6--0----0--0--0--0-----6--6-------------
A---0--0--0--0--0----7----------------------7--7-------------
E--------------------------------------------------------


couldn't understand...............( guitar 2, guitar 1 tacet )
[ Tab from: http://www.guitartabs.cc/tabs/s/sugar_ray/every_morning_tab_ver_2.html ]
E--12---------12----11----10--------10----11-----12---------------------
B-(10)-------(10)---(9)---(8)-------(8)---(9)---(10)---------------------
G--9----------9------8-----7---------7-----8-----9----------------------
D----------------------------------------------------------------------
A----------------------------------------------------------------------
E----------------------------------------------------------------------


she always.........( slightly palm muted )

E---2--2--2--2--2--2--2--2-----------------------------
B---3--3--3--3--3--3--3--3-----5--5--5--5--5--5--5--5--
G---2--2--2--2--2--2--2--2-----4--4--4--4--4--4--4--4--
D---0--0--0--0--0--0--0--0-----6--6--6--6--6--6--6--6--
A------------------------------7--7--7--7--7--7--7--7--
E------------------------------------------------------

E------------------------------------------------------
B---2--2--2--2--2--2--2--2-----------------------------
G---2--2--2--2--2--2--2--2-----------------------------
D---2--2--2--2--2--2--2--2-----4--4--4--4--4--4--4--4--
A---0--0--0--0--0--0--0--0-----4--4--4--4--4--4--4--4--
E------------------------------2--2--2--2--2--2--2--2--

E---2--2--2--2--2--2--2--2-----------------------------
B---3--3--3--3--3--3--3--3-----5--5--5--5--5--5--5--5--
G---2--2--2--2--2--2--2--2-----4--4--4--4--4--4--4--4--   BACK TO 
D---0--0--0--0--0--0--0--0-----6--6--6--6--6--6--6--6--   MAIN RIFF
A------------------------------7--7--7--7--7--7--7--7--
E------------------------------------------------------

Fill ( played once in a while throughout the song )

E-------------------------------------------
B---/5-5--5--5-----5/7~~----5p3----2~~~-----
G-------------------------------------------
D-------------------------------------------
A-------------------------------------------
E-------------------------------------------

Ending: just play the main riff in a different rhythm.


Thats it. let me know what you think and leave any comments 
at WeezerSP00@aol.com
Comments