Sugar Ray - American Pig Chords & Tabs

 

American Pig Chords & Tabs

Sugar Ray Chords & Tabs

Version: 2 Type: Tab 0 ratings
1 star 2 stars 3 stars 4 stars 5 stars
comments

American Pig Tab

Sugar Ray
"American Pig"

Standard Tuning

Intro: (this is right because I checked it with the sheet music at a
store)
e|-----------------------------------
B|-----------------------------------
G|-----------------------------------
D|----------------------------------- Repeat 2x
A|-0-0-0--1-1-1--0-0-0--1-1-1--------
E|-0-0-0--1-1-1--0-0-0--1-1-1--------
[ Tab from: http://www.guitartabs.cc/tabs/s/sugar_ray/american_pig_tab_ver_2.html ]
Small Solo
e|-----------------------------------
B|-10-11-10-------10-11----10--------
G|----------11-12-------12----12-11--
D|-----------------------------------
A|-----------------------------------
E|-----------------------------------

This is all I know from the song so far, but it's a hard tab to find
so I thought I'd post it anyway.
Any questions, comments, praises, threats, or mail send to
siropsycho@aol.com or ryanz@thecoolpage.com.
*Check out my music website at www.thecoolpage.com/music*
Comments