Sufjan Stevens - Romulus Chords & Tabs

 

Romulus Chords & Tabs

Sufjan Stevens Chords & Tabs

Version: 1 Type: Chords

Romulus Chords

   
-------------------------------------------------------------------------------
			     Sufjan Stevens - Romulus
-------------------------------------------------------------------------------
Tabbed by:Vincent
Email:v_oude_lansink@hotmail.com

Tuning:normal (capo 9)

These are just the chords Sufjan plays throughout the song. He puts a capo on the 9th 
(yes, I've seen him doing this live), so the chords are relative to the capo
[ Tab from: http://www.guitartabs.cc/tabs/s/sufjan_stevens/romulus_crd.html ]
e|--x---x-----0---0-------------------------------------------|
B|--3---3-----1---1-------------------------------------------|
G|--0---2-----2---0-------------------------------------------|
D|--0---0-----2---2-------------------------------------------|
A|--2---0-----0---3-------------------------------------------|
E|--3---2----------------------------------------------------|
    G   F#/D5 Am  C
If you don't have a capo or you hate that thing, you can play these chords:
E, Eb/B5, F#m, A

This is the whole song. Play and sing!
Greetings